» » »

Oasis, Keep The Dream Alive Bass tabs (ver.1)

Artists:  A B C D E F G H I J K L M N O P Q R S T U V W X Y Z # 

Keep The Dream Alive Bass tabs (ver.1)

Oasis Tabs
 Rating:
4/5 (4 votes)
Keep The Dream Alive lessons Tabs too difficult? Try these video lessons and learn fast
1
                Oasis- Keep the Dream Alive

Bass doesn’t come in until Verse 2

Verse
G|----------|         G|--------------------|
D|----------|         D|--------------------|
A|2~--2-4---|         A|2~--2-4-------------|
E|---------4|x2 then  E|---------4-—2~-2-2-2| then

G|---------------2—-1|      G|----------|
D|2~-------2~-2------|      D|----------|
A|-----4~------------|      A|2~--2-4---|  
E|-------------------| then E|---------4|x2

Chorus 1
G|---------------|        G|2-2-2-2-2-2-2~-|      G|---------------|
D|---------------|        D|---------------|      D|---------------|
A|2-2-2-2-2-2-2~-|        A|---------------|      A|2-2-2-2-2-2-2~-|
E|---------------|x2 then E|---------------| then E|---------------|x2

Bridge
G|----------|
D|----------|
A|2~--2-4---|
E|---------4|x4

Then Verse again then:

Chorus 2 
G|---------------|        G|2-2-2-2-2-2-2~-|      G|---------------|
D|---------------|        D|---------------|      D|---------------|
A|2-2-2-2-2-2-2~-|        A|---------------|      A|2-2-2-2-2-2-2~-|
E|---------------|x2 then E|---------------| then E|---------------|

(Played 5 times over)

Outro
G|---------2—-4|                 G|-------2—-4|        
D|----0h2------|                 D|--0h2------|        
A|2~-----------|                 A|2----------|        
E|-------------| first time then E|-----------|x3 then 

G|2~--4--2~--4--2~--2~--4--2|
D|--------------------------|
A|--------------------------|
E|--------------------------| then

G|---------2—-4|                 G|-------2—-4|        
D|----0h2------|                 D|--0h2------|        
A|2~-----------|                 A|2----------|        
E|-------------| first time then E|-----------|x5 then 

G|2~--4--2~--4--2~--2~--4--2|
D|--------------------------|
A|--------------------------|
E|--------------------------| then 

G|---------2—-4|                 G|-------2—-4|        
D|----0h2------|                 D|--0h2------|        
A|2~-----------|                 A|2----------|        
E|-------------| first time then E|-----------| faded out

That's it, have fun.
            
Submit corrections

comments powered by Disqus
↑ Back to top | Oasis Bass for Keep The Dream Alive. Lyrics for acoustic guitar and electric guitar. 1 Tablatures and chords are parodies/interpretations of the original songs. You may use it for private study, scholarship, research or language learning purposes only