» » »

Oasis, Keep The Dream Alive Tabs (ver.1)

Artists:  A B C D E F G H I J K L M N O P Q R S T U V W X Y Z # 

Keep The Dream Alive Tabs (ver.1)

Oasis Tabs
Rating:
0/5 (0 votes)
Keep The Dream Alive lessons Tabs too difficult? Try these video lessons and learn fast
                -------------------------------------------------------------------------------
-------------------------------------------------------------------------------
Tuning: standard EADGBE

Please note: I have not included the strumming pattern in these tabs, just the chords to 
played.

Chords for reference

D/F#
E-2-
B-3-
G-2-
D-0-
A-0-
E-2-

Capo 2nd fret

Introduction and Verses (these are repeated for the first and second verses)


(verse 1)  Four seasons secons flicker and flash, im alone
(verse 2)  I'm at the crossroads, waiting for a sign
E-0-0-0-0-|-0-0-0-0-0-0-0-0----|
B-2-3-3-3-|-2-3-3-3-2-3-3-3----|
G-2-2-2-2-|-2-2-2-2-2-2-2-2----|
D-2-2-0-0-|-2-2-0-0-2-2-0-0----|
A-0-0-2-0-|-0-0-2-0-0-0-2-0----|
E-x-x-x-2-|-x-x-x-2-x-x-x-2----|

  A lonely screen provides the scene, its no home
  My life is standing still, but I'm still alive
E-0-0-0-0-0-----|
B-2-3-3-3-0-----|
G-2-2-2-2-1-----|
D-2-2-0-0-2-----|
A-0-0-2-0-2-----|
E-x-x-x-2-0-----|

  Every night I hear you scream, but you don't say what you mean
  Every night I think I know, in the morning where did it go?
E-0-0-0-3-0----|
B-3-2-3-3-3----|
G-2-3-2-0-2----|
D-0-3-0-0-0----|
A-x-2-x-2-0----|
E-x-x-x-3-2----|

  This was my dream, but now my dream has flown.
  The answers disappear when I open my eyes.
E-0-0-0-0-0-0-0-0-----|
B-2-3-3-3-2-3-3-3-----|
G-2-2-2-2-2-2-2-2-----|
D-2-2-0-0-2-2-0-0-----|
A-0-0-2-0-0-0-2-0-----|
E-x-x-x-2-x-x-x-2-----|


----------------------------------------------------------------------------

Chorus
A
Im no stranger to this place, where real life and dreams collide

G                                  A
And even though i fall from grace, I will keep the dream alive

G               D/F#  A
I will keep the dream alive.

------------------------------------------------------------------------
After the 1st chorus Noel plays this solo over the introduction chords

E------------5-------------5-------------5-------------5----|
B-3p2-3p2-3----2h3p2-3p2h3---2h3p2-3p2h3---2h3p2-3p2h3------|
G-----------------------------------------------------------|
D-----------------------------------------------------------|
A-----------------------------------------------------------|
E-----------------------------------------------------------|

E-------------5-------------5-------------5-----5-----5-------------|
B-2h3p2-3p2h3---2h3p2-3p2h3---2h3p2-3p2h3---2h3---2h3---2h3---------|
G-------------------------------------------------------------------|
D-------------------------------------------------------------------|
A------------------------------------------------------------0------|
E-------------------------------------------------------------------|
(you can use a tremelo on the final note of the solo for authentic effect)

The first verse is then repeated, and the chorus is played through twice, but missing 
the second 'I will keep the dream alive' and staying on A.

This solo is then played after the second chorus repeat over the chorus chords.

E--------------------------------------------------------|
B-7-9-9b10--10-10-10b9-7----7-9-9b10--10-10-10b9-7-------|
G--------------------------------------------------------|
D--------------------------------------------------------|
A--------------------------------------------------------|
E--------------------------------------------------------|

E------------------------7---------------------------|
B-7-9-9b10--10-10-10b9-7---7-9-9b10-10-10-10b9-7-----|
G----------------------------------------------------|
D----------------------------------------------------|
A----------------------------------------------------|
E----------------------------------------------------|

E----------9-----------------------9-----------------|
B-7-9-9b10---10-10b9-7----7-9-9b10---10-10b9-7-------|
G----------------------------------------------------|
D----------------------------------------------------|
A----------------------------------------------------|
E----------------------------------------------------|

E----------9-------------9p7h9----------------------------|
B-7-9-9b10---10-10b9-7---------9p7h9-9b10-10-10-10b9-7----|
G---------------------------------------------------------|
D---------------------------------------------------------|
A---------------------------------------------------------|
E---------------------------------------------------------|

The chorus chords are then played as Liam sing Na na na na na nanah x4, then the song 
breaks down and stays on A to fade.

I hope this tab is accurate enough, and enjoy playing!


| /  slide up
| \  slide down
| h  hammer-on
| p  pull-off
| ~  vibrato
| +  harmonic
| x  Mute note
==========================================================
            

comments powered by Disqus
↑ Back to top | Oasis Tabs for Keep The Dream Alive. Lyrics for acoustic guitar and electric guitar. Tablatures and chords are parodies/interpretations of the original songs. You may use it for private study, scholarship, research or language learning purposes only