» » »

Oasis, Importance Of Being Idle Bass tabs (ver.4)

Artists:  A B C D E F G H I J K L M N O P Q R S T U V W X Y Z # 

Importance Of Being Idle Bass tabs (ver.4)

Oasis Tabs
 Rating:
4/5 (4 votes)
Importance Of Being Idle lessons Tabs too difficult? Try these video lessons and learn fast
1
                
This is not 100% accurate (there are some passing notes I have 
not tabbed) but you can kinda figure them out when you're playing.


/ = slide up
\ = slide down

INTRO

Part 1
G|----------|----------|----------|----------|
D|----------|----------|----------|----------|
A|----------|----------|----------|----------|
E|-5-5555-0-|-5-5555-0-|-5-5555-0-|-5--0--5\-|

Part 2
G|----------|----------|----------|----------|
D|----------|----------|--5-7-----|-/7-5-----|
A|----------|----5h7---|----------|------7-5-|
E|--------5-|----------|----------|----------|

VERSE

G|------|------|------|------|
D|------|-3----|------|----2-|
A|------|------|-3----|-2----|
E|-5----|------|------|------| 


G|------|------|------|------|
D|------|------|------|------|
A|------|------|-3----|-2----|
E|-5----|-1----|------|----0-|


G|------|------|------|------|
D|------|------|------|------|
A|------|------|-3333-|-2/-7-|
E|-5555-|-1111-|------|------|


G|------|------|------|------|
D|------|------|------|------|
A|------|------|-3333-|-2----|
E|-5555-|-1111-|------|---0--|


CHORUS

G|-------|-------|-------|-------|
D|-------|-7777\-|-------|-7777--|
A|-5555--|-------|-5555--|-------|
E|-------|-------|-------|-------|

G|-------|-------|-------|-------|
D|-------|-/7777-|-3-----|--3----|
A|-5555--|-------|-------|-------|
E|-------|-------|-------|-------|

G|-------|-------|---------|---------|
D|-5-----|-2-----|-2-0-----|---------|
A|-------|-------|-----3-2-|-0-------|
E|-------|-------|---------|---3-2 0-|


SOLO 
G|------|------|------|------|
D|------|------|------|----2-|
A|------|------|-3--3-|-2----|
E|-5555-|-1111-|------|------| 


G|------|------|------|------|
D|------|------|------|------|
A|------|------|-3333-|-2----|
E|-5555-|-1111-|------|----0-|

G|------|------|------|------|
D|------|-3333-|------|----2-|
A|------|------|-3333-|-2----|
E|-5555-|------|------|------| 


G|------|------|------|--------|
D|------|------|------|--------|
A|------|------|-3-2--|--------|
E|-5555-|-1111-|------|-0000000|

REPEAT CHORUS

REPEAT INTO Part 1

REPEAT VERSE

REPEAT CHORUS

REPEAT INTO Part 1

END
            
Submit corrections

comments powered by Disqus
↑ Back to top | Oasis Bass for Importance Of Being Idle. Lyrics for acoustic guitar and electric guitar. 1 Tablatures and chords are parodies/interpretations of the original songs. You may use it for private study, scholarship, research or language learning purposes only