» » »

Oasis, Importance Of Being Idle Bass tabs (ver.1)

Artists:  A B C D E F G H I J K L M N O P Q R S T U V W X Y Z # 

Importance Of Being Idle Bass tabs (ver.1)

Oasis Tabs
Rating:
0/5 (0 votes)
Importance Of Being Idle lessons Tabs too difficult? Try these video lessons and learn fast
                Oasis - The importance of being idle


Standart tuning (EADG)

G|----------------------------------------------------------------|
D|----------------------------------------------------------------|
A|----------------------------------------------------------------|
E|5---5-5-5-5-0---5---5-5-5-5-0---5---5-5-5-5-0---5---4---5-------|

G|-----------------------------|
D|-----5-7-7-7-7-7-7-7-5-------|
A|-5-7-------------------5-3---|
E|-----------------------------|

G|----------------------------------------------------------------|
D|-------------------------------------------2-2------------------|
A|---------------------------3-3-3-3-3-3-2-2----------------------|  (x3)
E|------5-5-5-5-5-1-1-1-1-1---------------------------------------|

G|----------------------------------------------------------------|
D|----------------------------------------------------------------|
A|--5-5-5-5-0-0-0-0-5-5-5-5-0-0-0-0-5-5-5-5-0-0-0-0---------------|
E|--------------------------------------------------1-1-1-1-1-1-1-|

G|-----------------------------------------|
D|-----------------2-0---------------------|
A|---------------------3-2-0---------------|
E|-3-3-3-3-3-3-3-3-----------3-2-0---------|

G|----------------------------------------------------------------|
D|-------------------------------------------2-2------------------|
A|---------------------------3-3-3-3-3-3-2-2----------------------|  (x3)
E|------5-5-5-5-5-1-1-1-1-1---------------------------------------|

G|----------------------------------------------------|
D|--------------------------------2-------------------|
A|---------------------------3-2----------------------|  
E|------5-5-5-5-5-1-1-1-1-1---------------------------|

G|-------------------------------------------------------------|
D|-------------------------------------------------------------|
A|------5-5-5-5-0-0-0-0-5-5-5-5-0-0-0-0-5-5-5-5-0-0-0-0--------|  
E|-------------------------------------------------------------|

G|----------------------------------------------------|
D|--------------------------------------2-0-----------|
A|--------------------------------3-2-0---------------|
E|-1-1-1-1-1-1-1-3-3-3-3-3-3-3-3-----------3-2-0------|

G|----------------------------------------------------------------|
D|----------------------------------------------------------------|
A|----------------------------------------------------------------|
E|5---5-5-5-5-0---5---5-5-5-5-0---5---5-5-5-5-0---5---4---5-------|

G|----------------------------------------------------------------|
D|-------------------------------------------2-2------------------|
A|---------------------------3-3-3-3-3-3-2-2----------------------|  (x4)
E|------5-5-5-5-5-1-1-1-1-1---------------------------------------|

G|-------------------------------------------------------------|
D|-------------------------------------------------------------|
A|------5-5-5-5-0-0-0-0-5-5-5-5-0-0-0-0-5-5-5-5-0-0-0-0--------|  
E|-------------------------------------------------------------|

G|----------------------------------------------------|
D|--------------------------------------2-0-----------|
A|--------------------------------3-2-0---------------|
E|-1-1-1-1-1-1-1-3-3-3-3-3-3-3-3-----------3-2-0------|

G|----------------------------------------------------------------|
D|----------------------------------------------------------------|
A|----------------------------------------------------------------|
E|5---5-5-5-5-0---5---5-5-5-5-0---5---5-5-5-5-0---5---4---5-------|
            
Submit corrections

comments powered by Disqus
↑ Back to top | Oasis Bass for Importance Of Being Idle. Lyrics for acoustic guitar and electric guitar. Tablatures and chords are parodies/interpretations of the original songs. You may use it for private study, scholarship, research or language learning purposes only