>
 >
Idlers Dream 1

Idlers Dream 1 Chords

Oasis - Idlers Dream 1 chords, tabs, tablatures, lyrics

Guitar lessons | Add/correct | Request | Top 50 tabs Artists:  A B C D E F G H I J K L M N O P Q R S T U V W X Y Z 0-9

Idlers Dream 1 Chords – Oasis

CD, Sheet music, Poster

Do you like Idlers Dream 1? Share with your friends now
Chords
                                 Oasis
                             Idlers dream



Capo 5th fret

C#m*	042000

               C/G             Fmaj7           C/G
INTRO: (2x)
e|-----0-----0-----|-----1-----1-----|---------------------------------|
B|---1-----1-----1-|---1-----1-----1-|---1-0---1-0---0---1-0---1-0---0-|
G|-0-----0-----0---|-0-----0-----0---|-0-----0-----0---0-----0-----0---|
D|-----------------|-----------------|---------------------------------|
A|-----------------|-----------------|---------------------------------|
E|-----------------|-----------------|---------------------------------|

VERSE 1:
  C/G                       Fmaj7           C/G
        My heart it skips a beat when  I  behold
e|------0--------0---------|-------1-----1-----|----------------------------------|
B|----1--------1--------1--|-----1-----1-----1-|---1-0---1-0---0----1-0---1-0---0-|
G|-0--------0---------0----|---0-----0-----0---|-0-----0-----0----0-----0-----0---|  
D|-------------------------|-------------------|----------------------------------|
A|-------------------------|-------------------|----------------------------------|
E|-------------------------|-------------------|----------------------------------|
      C/G                  Fmaj7                C/G
  the light that's shining through your eyes of gold
Am              C/G               G
  from heavenly blood you seem to spring 
Am              C/G            G
  from heavenly waters you can drink

VERSE 2:
C/G                  Fmaj7          C/G
  I'll meet you on a day that never ends
C/G                   Fmaj7           C/G
  I'll greet you in a way that heaven meant
Am                C/G           G
  you lay me down gently on the leaves
Am             C/G        G    (let ring out)
  you cover me over in my sleep

CHORUS 1: 
            C/G              G
I never did say now i wish i could
              C/G                      G
I never could pray 'cause it's just no good
                 C/G               G
I hope you donít break my heart of stone
        Bm                                      C/G       G
I don't wanna scream out loud and wake up on my own, mmmm mmmm
G/F#       Em                    Bm         
  and as I close my eyes and the sky turns red
  C/G                   G
I realise just what you are
G/F#        Em                       Bm              C    C#m*
  you're an idler's dream and you're singing shangri laaaaaaaaa
C#m*    C    C#m*         C    C#m*         
shangri laaaaaaa, shangri laaaaaaa, shangri 
C          G
laaaaaaaaaaaaaaaaaaaaaaaaaaaa
	|-----3-------3-------3-------3-------3-------3---------3-~~~-|
	|---0---0---1---1---0---0---1---1---0---0---1---1-------3-~~~-|
	|-0-------0-------0-------0-------0-------0-------0-----0-~~~-|
	|-------------------------------------------------------0-~~~-|
	|-------------------------------------------------------2-~~~-|
	|-------------------------------------------------------3-~~~-|





Comments


Popular Oasis tabs & chords
Acquiesce 1 Bass Tabs
Dont Go Away Bass Tabs
Cum On Feel The Noize 1 Chords
Dont Look Back In Anger 2 Chords
Dyer Wanna Be A Spaceman 1 Chords
Im Outta Time 3 Chords
Hello Tabs
Rock 'n' Roll Star 1 Tabs
The Girl In The Dirty Shirt Tabs



Song lyrics



↑ Back to top | Tablatures and chords are parodies/interpretations of the original songs. You may use it for private study, scholarship, research or language learning purposes only
© 2014 AZChords.com Contact us | Privacy policy | DMCA | Add/correct tabs | Request tabs | Top 50 tabs