>
 >
Fuckin' In The Bushes 1

Fuckin' In The Bushes 1 Guitar Tabs

Oasis - Fuckin' In The Bushes 1 chords, tabs, tablatures, lyrics

Guitar lessons | Add/correct | Request | Top 50 tabs Artists:  A B C D E F G H I J K L M N O P Q R S T U V W X Y Z 0-9

Fuckin' In The Bushes 1 Guitar Tabs – Oasis

CD, Sheet music, Poster

Do you like Fuckin' In The Bushes 1? Share with your friends now
TabsTabs v2
(0:05)
Bloke: We put this festival on you bastards, with
                     E--0h3-   
       a lot of love.       We worked for 1 year for
   
       you pigs. And you wanna brake are walls down
                                               (0:20)
       and you wanna destroy us. Well you go-da HELL!

Main riff

(0:20) till (1:31) 

e-------------------------
B-------------------------
G-------------------------
D---------------2-----0h2-
A-----------------0h2-----
E--0--3p0--3r0------------

Play these riffs at these times:

 (1:23)  (1:26)  (1:28)  (1:31)
e-------|-------|-------|-------|                               
B-------|-------|-------|-------|
G-------|-------|-------|-------|
D-7br5--|-7br5--|-7br5--|-7br5--|
A------7|------7|------7|-------|
E-------|-------|-------|-------|
 
Then

This riff and old man start at(1:31) and end at(1:50)

(1:31)
Kids are running around nacked fuckin in the bushes
(1:36)
Kids are running around nacked fuckin in the bushes
(1:41)
Kids are running around nacked fuckin in the bushes
(1:46)
Kids are running around nacked fuckin in the bushes 

(1:31)               (1:42)                 (1:47)
  this riff 4x   
e---5----------------|-------5---9b-8-5-8-5--
B-----5--------------|-----5---5------------5
G7b-----7b7r5---5-7b-|--7b-------------------
D-------------7------|-----------------------
A--------------------|-----------------------
E--------------------|-----------------------

(1:48)         (1:50)                                                 (1:59)
e--------------|---------------------------------------------------------
B--------------|---------------------------------------------------------
G--7br5---5----|---------------------------------------------------------
D-------7---7v-|----------7b7r5-----------7b7r5---------7b7r5---7b7r5----
A--------------|-7-77-77--------7-77-77---------7-77-77-------7-------7--
E--------------|-0-00-00--------0-00-00---------0-00-00------------------           

(1:50)               
Old woman: I love it

(2:00) till (2:19)
main riff

e------------------------
B------------------------
G------------------------
D---------------2-----0h2
A-----------------0h2----
E--0--3p0--3r0-----------

 (2:04) till (2:24)  
e------------|                               
B------------|
G------------|
D-7br5---5---|
A------7---7v|
E------------| this bit 9x 

(2:24)
Kids are running around nacked fuckin in the bushes
(2:29)
Kids are running around nacked fuckin in the bushes
(2:33)
Kids are running around nacked fuckin in the bushes
(2:38)
Kids are running around nacked fuckin in the bushes

(2:45)
Old woman:I love it, room for every body dear, yes all are welcome, yes in deed

i love them, fun, nice, life, youth, beautiful, im all for it.

Start playing this riff at (2:24) till (3:03)    
e---5----------------|
B-----5--------------|
G7b-----7b7r5---5-7b-| Repeat this riff till (3:03)
D-------------7------| 
A--------------------|
E--------------------|

Then 

(3:02)
Old woman:I love it, room for every body dear, yes all are welcome, yes in deed
     (3:08 music stops)                                        (3:17)
i love them, fun, nice, life, youth, beautiful, im all for it.

(3:03)               (3:08)
e------5--------------
B---------------------
G--7b-----7vvvvvvvvvvv
D---------------------
A---------------------
E---------------------


                            !FIN!
Stay cool and keep practicin them songs. see ya! 

(p.s this is my first go at tabbin so let me know 
if this helped you. thanks) Email me at 


****      / \      ++++++   !          ********  ?     ?
*   *    /   \     +     +  !          *         ?     ?
***     /-----\    ++++++   !          *****     ?     ?
*   *  /       \   +  ++    !          *           ? ?
****  /         \  +    +   !!!!!!!!!! ********     ?
?????????????????????????????????????????????????????





Comments


Popular Oasis tabs & chords
Alive 3 Chords
Im Only Sleeping Chords
Little James 2 Chords
Live Forever 2 Chords
Shes Electric 3 Chords
Lyla Drum Tabs
Guess God Thinks Im Abel Tabs
Oasisdya Know What I Mean Tabs
Songbird Demo Tabs
Thank You For The Good Times 1 Tabs


Song lyrics



↑ Back to top | Tablatures and chords are parodies/interpretations of the original songs. You may use it for private study, scholarship, research or language learning purposes only
© 2014 AZChords.com Contact us | Privacy policy | DMCA | Add/correct tabs | Request tabs | Top 50 tabs