» » »

Oasis, Force Of Nature Bass tabs (ver.2)

Artists:  A B C D E F G H I J K L M N O P Q R S T U V W X Y Z # 

Force Of Nature Bass tabs (ver.2)

Oasis Tabs
 Rating:
4/5 (4 votes)
Force Of Nature lessons Tabs too difficult? Try these video lessons and learn fast
                OASIS

THE SONG - FORCE OF NATURE (WRITTEN: NOEL GALLAGHER)
THE ALBUM - HEATHEN CHEMISTRY


NORMAL TUNING -eadg-

INTRO
------
------
------
--7\--

the bass for the verse 1

yeah I feel like a force of nature...
------------------------------------------
------------------------------------------
------------------------------------------
--5--3-5--3-7--5-7--5\2--0-2--0-2--0-2--0- x5

------------------------------------------
------------------------------------------
----------------------9--7-9--7-9--7------
--5--3-5--3-7--5-7--5----------------9--7-

you know you look like a faded picture...
------------------------------------------
------------------------------------------
------------------------------------------
--5--3-5--3-7--5-7--5\2--0-2--0-2--0-2--0- x3

that the thieves of the night are coming to take you in
-----------------------------------------------------------------
-----------------------------------------------------------------
-----------------------------------------------------------------
--5--5-5--5-5--5-5--5-7--5-7--5-7--5-7--5/14-14-14-14-\-2-/-14-\-

you're smokin all my stash...
------------------------------------------
------------------------------------------
------------5--3-5--3---------------------
--7--5-7--5-----------3--2-3--2-3--2-3--2- x3

town as the suns going down and the days of your
--------------------------------------------
--------------------------------------------
---------4/5--5-5--7--7-7-/-10-10--10-10--10-
--5--5-5------------------------------------

easy life              I bet ya knew right away...
------------------------------------------
------------------------------------------
------------5--3-5--3---------------------
--7--5-7--5-----------3--2-3--2-3--2-3--2- x3

town as the suns going down and it's high              time          to
---------------------------------------------------------------------------
---------------------------------------------------------------------------
---------4/5--5-5--7-7--7-7-/-10-10--10-10--10-10--10-10--10-9-9-9-9-9-9-\-
--5--5-5-------------------------------------------------------------------

prayyy
------------------------------------------
------------------------------------------
------------------------------------------
--5--3-5--3-7--5-7--5\2--0-2--0-2--0-2--0-

-----------------------------------------------------------
-----------------------------------------------------------
-----------------------------------------------------------
--5--3-5--3-7--5-7--5/14-14-14-14-14-14-14-14-14-14-14-14\-

 yeah I feel like a force of nature
------------------------------------------
------------------------------------------
------------------------------------------
--5--3-5--3-7--5-7--5\2--0-2--0-2--0-2--0-

 could make you sing like a bird released    if what you
-----------------------------------------------------------
-----------------------------------------------------------
-----------------------------------------------------------
--5--3-5--3-7--5-7--5/14-14-14-14-14-14-14-14-14-14-14-14\-

 seek is a wise mans treasure you know it's
------------------------------------------
------------------------------------------
------------------------------------------
--5--3-5--3-7--5-7--5\2--0-2--0-2--0-2--0-

 buried beneath your feet       you know you
----------------------------------------------
----------------------------------------------
--------------------5/9-9-9-9-9-9-7-7-7-5-----
--5--3-5--3-7--5-7------------------------8-7-

 look like a faded picture   I see the cracks...
------------------------------------------
------------------------------------------
------------------------------------------
--5--3-5--3-7--5-7--5\2--0-2--0-2--0-2--0- x3

the thieves of the night are coming to take you in   you're smokin all
-----------------------------------------------------------------
-----------------------------------------------------------------
-----------------------------------------------------------------
--5--5-5--5-5--5-5--5-7--5-7--5-7--5-7--5/14-14-14-14-\-2-/-14-\-

 my stash             but burning all my...
------------------------------------------
------------------------------------------
------------5--3-5--3---------------------
--7--5-7--5-----------3--2-3--2-3--2-3--2- x3

town as the suns going down and the days of your
---------------------------------------------
---------------------------------------------
---------4/5--5-5--7--7-7-/-10-10--10-10--10-
--5--5-5-------------------------------------

 easy life             I bet ya knew right...
------------------------------------------
------------------------------------------
------------5--3-5--3---------------------
--7--5-7--5-----------3--2-3--2-3--2-3--2- x3

 if you're begging me please and you're on your..
---------------------------------------------
---------------------------------------------
---------4/5--5-5--7--7-7-/-10-10--10-10--10-
--5--5-5-------------------------------------

 and pray-ayyy
------------------------------------------
------------------------------------------
------------5--3-5--3---------------------
--7--5-7--5-----------3--2-3--2-3--2-3--2- x4

 stash                ya burning all my cash...
------------------------------------------
------------------------------------------
------------5--3-5--3---------------------
--7--5-7--5-----------3--2-3--2-3--2-3--2- x3

town as the suns going down and it's high
------------------------------------------------------------
------------------------------------------------------------
-----------5--5-5--7-7--7-7-/-10-10--10-10--10-10--10-10...-
--5--5-5-7--------------------------------------------------

 time                          to
---------------------------------------
---------------------------------------
--9--9-9--9-9--9-9--9-9--9-9\----------
------------------------------2-/-14-\-
variation
-----------------------------------------
-----------------------------------------
--9--9-9--9-9--9-9--9-9------------------
-------------------------12-10-\2-/-14-\-

 prayyy
------------------------------------------
------------------------------------------
------------------------------------------
--5--3-5--3-7--5-7--5\2--0-2--0-2--0-2--0- x3

the end:fade out with this (about time at 4.08)
------------------------------------------------------
------------------------------------------------------
--------------------5/9-9-9-9-9-9-9-----7--9-9--9--9--
--5--3-5--3-7--5-7-------------------10---------------

--------------------------------------------
--------------------------------------------
-----7--9-9--9--9-----7--9-9--9--9-----7--9-
--10---------------10---------------10------

this keeps repeating (4.20)
-----------------------------------------------------
-----------------------------------------------------
-----------------------------------------------------
--2--2--2--0-0--2-2--2--2--0-0--2-2--2--2--0-0--2-2--

variation (about 4.08)
the end:I think Andy plays like this
------------------------------------------------------
------------------------------------------------------
--------------------5/9-9-9-9-9-9-9-----7--9-9--9--9--
--5--3-5--3-7--5-7-------------------10---------------

--------------------------------------------
--------------------------------------------
-----7--9-9--9--9-----7--9-9--9--9-----7--9-
--10---------------10---------------10------

-------------------------------------------
-------------------------------------------
-------------7--9------------7--9----------
--2--2--2--0------2--2--2--0------2--2--2--

-------------------------------------------
-------------------------------------------
----7--9------------7--9\------------7--9\-
--0------2--2--2--0-------2--2--2--0-------

---------------------------------------------
---------------------------------------------
-------------7/-9\------------7/-9\----------
--2--2--2--0-------2--2--2--0-------2--2--2--

fade out
            
Submit corrections

comments powered by Disqus
↑ Back to top | Oasis Bass for Force Of Nature. Lyrics for acoustic guitar and electric guitar. Tablatures and chords are parodies/interpretations of the original songs. You may use it for private study, scholarship, research or language learning purposes only