» » »

Don't Go Away Tabs (ver.5)

Artists:  A B C D E F G H I J K L M N O P Q R S T U V W X Y Z # 

Don't Go Away Tabs (ver.5)

Oasis
Rating:
0/5 (0 votes)

Hard to play? Try these video lessons and learn fast.
                (Riff)
e----------------------------------      -------
b----------------------------------      -------
g-----5/7-9-7-5-7-------------       -------
d-5/7-------------7--------------      -------
a----------------------------------      -3-3-3-3-3/5-0
e----------------------------------      -------

e----------------------------------
b----------------------------------
g-----5/7bending8-9-7-5-7-
d-5/7-------------7--------------
a----------------------------------
e----------------------------------



This is tablature of EDOARDO  CALIARO
            
Hard to play? Try these video lessons and learn fast. | Correct




comments powered by Disqus
↑ Back to top | Tablatures and chords are parodies/interpretations of the original songs. You may use it for private study, scholarship, research or language learning purposes only