» » »

Oasis, Don't Go Away Bass tabs (ver.2)

Artists:  A B C D E F G H I J K L M N O P Q R S T U V W X Y Z # 

Don't Go Away Bass tabs (ver.2)

Oasis Tabs
 Rating:
4/5 (4 votes)
Don't Go Away lessons Tabs too difficult? Try these video lessons and learn fast
                Don't Go Away from the album Be Here Now.

Verse

G |---------|---------|---------|---------|
D |---------|---------|---------|---------|
A |---------|---------|---------|-5-5-5-5-|
E |-5-5-5-5-|-3-3-3-3-|-1-1-1-1-|---------|


Pre-Chorus

G |---------|---------|---------|---------|
D |---------|---------|---------|---------|
A |---------|---------|---------|-5-5-5-5-|
E |-1-1-1-1-|-3-3-3-3-|-1-1-1-1-|---------|


Chorus

G |---------|---------|---------|---------|---------|---------|------------|
D |---------|---------|---------|---------|---------|---------|------------|
A |-3-3-3-3-|---------|---------|---------|---------|---------|-5-5--------|
E |---------|-3-3-3-3-|-5-5-5-5-|-3-3-3-3-|-1-1-1-1-|-3-3-3-3-|------33--1-|


Middle

G |---------|---------|---------|---------|---------|---------|---------|---------|
D |---------|---------|---------|---------|---------|---------|---------|---------|
A |-3-3-3-3-|-3-3-3-3-|---------|---------|-3-3-3-3-|-3-3-3-3-|-3-3-3-3-|-3-3-3-3-|
E |---------|---------|-1-1-1-1-|-3-3-3-3-|---------|---------|---------|---------|


Outro

G |---------|--------|
D |---------|--------|
A |-----5-5-|--------|
E |-3-3-----|-33--1--|

Order of the Riffs:
Verse x 4
Pre-Chorus
Chorus
Verse x 2
Pre-Chorus
Chorus
Middle
Chorus x 2
Outro x 2
		
            
Submit corrections

comments powered by Disqus
↑ Back to top | Oasis Bass for Don't Go Away. Lyrics for acoustic guitar and electric guitar. Tablatures and chords are parodies/interpretations of the original songs. You may use it for private study, scholarship, research or language learning purposes only