>
 >
Columbia 2

Columbia 2 Bass Tabs

Oasis - Columbia 2 chords, tabs, tablatures, lyrics

Guitar lessons | Add/correct | Request | Top 50 tabs Artists:  A B C D E F G H I J K L M N O P Q R S T U V W X Y Z 0-9

Columbia 2 Bass Tabs – Oasis

CD, Sheet music, Poster

Do you like Columbia 2? Share with your friends now
Bass TabsBass Tabs v2Bass Tabs v3Bass Tabs v4ChordsDrum TabsTabsTabs v2Tabs v3Ukulele

COLUMBIA (Bassline)
As recorded by Oasis
(From the 1994 Album DEFINITELY MAYBE)

	

Words and Music by Noel Gallagher

Gtr I (E A D G) - 'Guigsy (Bass)'

 Intro
  Q=100
 4/4
  Gtr I
  W          E E E E E E E E   E E E E E E E E   E E E E E E E E
|----------|-----------------|-----------------|-----------------|
|----------|-----------------|-----------------|-----------------|
|----------|-0-0-0-0-0-0-0-0-|-0-0-0-0-0-0-0-0-|-5-5-5-5-5-5-5-3-|
|----------|-----------------|-----------------|-----------------|


  E E E E E E E E   E E E E E E E E   E E E E E E E E   E E E E E E E E
|-----------------|-----------------|-----------------|-----------------|
|-----------------|-----------------|-----------------|-----------------|
|-3-3-3-3-3-3-3-0-|-0-0-0-0-0-0-0-0-|-0-0-0-0-0-0-0-0-|-5-5-5-5-5-5-5-3-|
|-----------------|-----------------|-----------------|-----------------|


  E E E E E E E E   E E E E E E E E   E E E E E E E E   E E E E E E E E
|-----------------|-----------------|-----------------|-----------------|
|-----------------|-----------------|-----------------|-----------------|
|-3-3-3-3-3-3-3-0-|-0-0-0-0-0-0-0-0-|-0-0-0-0-0-0-0-0-|-5-5-5-5-5-5-5-3-|
|-----------------|-----------------|-----------------|-----------------|


  E E E E E E E E   E E E E E E E E   E E E E E E E E   E E E E E E E E
|-----------------|-----------------|-----------------|-----------------|
|-----------------|-----------------|-----------------|-----------------|
|-3-3-3-3-3-3-3-0-|-0-0-0-0-0-0-0-0-|-0-0-0-0-0-0-0-0-|-5-5-5-5-5-5-5-3-|
|-----------------|-----------------|-----------------|-----------------|


                    First Verse
  E E E E E E E E    E E E E E E E E   E E E E E E E E   E E E E E E E E
|-----------------||-----------------|-----------------|-----------------|
|-----------------||-----------------|-----------------|-----------------|
|-3-3-3-3-3-3-3-0-||-0-0-0-0-0-0-0-0-|-0-0-0-0-0-0-0-0-|-5-5-5-5-5-5-5-3-|
|-----------------||-----------------|-----------------|-----------------|


  E E E E E E E E   E E E E E E E E   E E E E E E E E   E E E E E E E E
|-----------------|-----------------|-----------------|-----------------|
|-----------------|-----------------|-----------------|-----------------|
|-3-3-3-3-3-3-3-0-|-0-0-0-0-0-0-0-0-|-0-0-0-0-0-0-0-0-|-5-5-5-5-5-5-5-3-|
|-----------------|-----------------|-----------------|-----------------|


                    Chorus
  E E E E E E E E    E E E E E E E E   E E E E E E E E   E E E E E E E E
|-----------------||-----------------|-----------------|-----------------|
|-----------------||-----------------|-----------------|-----------------|
|-3-3-3-3-3-3-3-0-||-0-0-0-0-0-0-0-0-|-0-0-0-0-0-0-0-0-|-5-5-5-5-5-5-5-3-|
|-----------------||-----------------|-----------------|-----------------|


  E E E E E E E E   E E E E E E E E   E E E E E E E E   E E E E E E E E
|-----------------|-----------------|-----------------|-----------------|
|-----------------|-----------------|-----------------|-----------------|
|-3-3-3-3-3-3-3-0-|-0-0-0-0-0-0-0-0-|-0-0-0-0-0-0-0-0-|-5-5-5-5-5-5-5-3-|
|-----------------|-----------------|-----------------|-----------------|


                    Interlude
  E E E E E E E E    E E E E E E E E   E E E E E E E E   E E E E E E E E
|-----------------||-----------------|-----------------|-----------------|
|-----------------||-----------------|-----------------|-----------------|
|-3-3-3-3-3-3-3-0-||-0-0-0-0-0-0-0-0-|-0-0-0-0-0-0-0-0-|-5-5-5-5-5-5-5-3-|
|-----------------||-----------------|-----------------|-----------------|


  E E E E E E E E   E E E E E E E E   E E E E E E E E   E E E E E E E E
|-----------------|-----------------|-----------------|-----------------|
|-----------------|-----------------|-----------------|-----------------|
|-3-3-3-3-3-3-3-0-|-0-0-0-0-0-0-0-0-|-0-0-0-0-0-0-0-0-|-5-5-5-5-5-5-5-3-|
|-----------------|-----------------|-----------------|-----------------|


                    Second Verse
  E E E E E E E E    E E E E E E E E   E E E E E E E E   E E E E E E E E
|-----------------||-----------------|-----------------|-----------------|
|-----------------||-----------------|-----------------|-----------------|
|-3-3-3-3-3-3-3-0-||-0-0-0-0-0-0-0-0-|-0-0-0-0-0-0-0-0-|-5-5-5-5-5-5-5-3-|
|-----------------||-----------------|-----------------|-----------------|


  E E E E E E E E   E E E E E E E E   E E E E E E E E   E E E E E E E E
|-----------------|-----------------|-----------------|-----------------|
|-----------------|-----------------|-----------------|-----------------|
|-3-3-3-3-3-3-3-0-|-0-0-0-0-0-0-0-0-|-0-0-0-0-0-0-0-0-|-5-5-5-5-5-5-5-3-|
|-----------------|-----------------|-----------------|-----------------|


                    Chorus
  E E E E E E E E    E E E E E E E E   E E E E E E E E   E E E E E E E E
|-----------------||-----------------|-----------------|-----------------|
|-----------------||-----------------|-----------------|-----------------|
|-3-3-3-3-3-3-3-0-||-0-0-0-0-0-0-0-0-|-0-0-0-0-0-0-0-0-|-5-5-5-5-5-5-5-3-|
|-----------------||-----------------|-----------------|-----------------|


  E E E E E E E E   E E E E E E E E   E E E E E E E E   E E E E E E E E
|-----------------|-----------------|-----------------|-----------------|
|-----------------|-----------------|-----------------|-----------------|
|-3-3-3-3-3-3-3-0-|-0-0-0-0-0-0-0-0-|-0-0-0-0-0-0-0-0-|-5-5-5-5-5-5-5-3-|
|-----------------|-----------------|-----------------|-----------------|


                    Interlude
  E E E E E E E E    E E E E E E E E   E E E E E E E E   E E E E E E E E
|-----------------||-----------------|-----------------|-----------------|
|-----------------||-----------------|-----------------|-----------------|
|-3-3-3-3-3-3-3-0-||-0-0-0-0-0-0-0-0-|-0-0-0-0-0-0-0-0-|-5-5-5-5-5-5-5-3-|
|-----------------||-----------------|-----------------|-----------------|


  E E E E E E E E   E E E E E E E E   E E E E E E E E   E E E E E E E E
|-----------------|-----------------|-----------------|-----------------|
|-----------------|-----------------|-----------------|-----------------|
|-3-3-3-3-3-3-3-0-|-0-0-0-0-0-0-0-0-|-0-0-0-0-0-0-0-0-|-5-5-5-5-5-5-5-3-|
|-----------------|-----------------|-----------------|-----------------|


                    Guitar Solo
  E E E E E E E E    E E E E E E E E   E E E E E E E E   E E E E E E E E
|-----------------||-----------------|-----------------|-----------------|
|-----------------||-----------------|-----------------|-----------------|
|-3-3-3-3-3-3-3-0-||-0-0-0-0-0-0-0-0-|-0-0-0-0-0-0-0-0-|-5-5-5-5-5-5-5-3-|
|-----------------||-----------------|-----------------|-----------------|


  E E E E E E E E   E E E E E E E E   E E E E E E E E   E E E E E E E E
|-----------------|-----------------|-----------------|-----------------|
|-----------------|-----------------|-----------------|-----------------|
|-3-3-3-3-3-3-3-0-|-0-0-0-0-0-0-0-0-|-0-0-0-0-0-0-0-0-|-5-5-5-5-5-5-5-3-|
|-----------------|-----------------|-----------------|-----------------|


  E E E E E E E E   E E E E E E E E   E E E E E E E E   E E E E E E E E
|-----------------|-----------------|-----------------|-----------------|
|-----------------|-----------------|-----------------|-----------------|
|-3-3-3-3-3-3-3-0-|-0-0-0-0-0-0-0-0-|-0-0-0-0-0-0-0-0-|-5-5-5-5-5-5-5-5-|
|-----------------|-----------------|-----------------|-----------------|


  E E E E E E E E   E E E E E E E E   E E E E E E E E   E E E E E E E E
|-----------------|-----------------|-----------------|-----------------|
|-----------------|-----------------|-----------------|-----------------|
|-3-3-3-3-3-3-3-3-|-0-0-0-0-0-0-0-0-|-0-0-0-0-0-0-0-0-|-5-5-5-5-5-5-5-5-|
|-----------------|-----------------|-----------------|-----------------|


                    Interlude
  E E E E E E E E    E E E E E E E E   E E E E E E E E   E E E E E E E E
|-----------------||-----------------|-----------------|-----------------|
|-----------------||-----------------|-----------------|-----------------|
|-3-3-3-3-3-3-3-3-||-0-0-0-0-0-0-0-0-|-0-0-0-0-0-0-0-0-|-5-5-5-5-5-5-5-5-|
|-----------------||-----------------|-----------------|-----------------|


  E E E E E E E E   E E E E E E E E   E E E E E E E E   E E E E E E E E
|-----------------|-----------------|-----------------|-----------------|
|-----------------|-----------------|-----------------|-----------------|
|-3-3-3-3-3-3-3-3-|-0-0-0-0-0-0-0-0-|-0-0-0-0-0-0-0-0-|-5-5-5-5-5-5-5-5-|
|-----------------|-----------------|-----------------|-----------------|


                    Guitar Solo 2
  E E E E E E E E    E E E E E E E E   E E E E E E E E   E E E E E E E E
|-----------------||-----------------|-----------------|-----------------|
|-----------------||-----------------|-----------------|-----------------|
|-3-3-3-3-3-3-3-3-||-0-0-0-0-0-0-0-0-|-0-0-0-0-0-0-0-0-|-5-5-5-5-5-5-5-5-|
|-----------------||-----------------|-----------------|-----------------|


  E E E E E E E E   E E E E E E E E   E E E E E E E E   E E E E E E E E
|-----------------|-----------------|-----------------|-----------------|
|-----------------|-----------------|-----------------|-----------------|
|-3-3-3-3-3-3-3-3-|-0-0-0-0-0-0-0-0-|-0-0-0-0-0-0-0-0-|-5-5-5-5-5-5-5-5-|
|-----------------|-----------------|-----------------|-----------------|


  E E E E E E E E   E E E E E E E E   E E E E E E E E   E E E E E E E E
|-----------------|-----------------|-----------------|-----------------|
|-----------------|-----------------|-----------------|-----------------|
|-3-3-3-3-3-3-3-3-|-0-0-0-0-0-0-0-0-|-0-0-0-0-0-0-0-0-|-5-5-5-5-5-5-5-5-|
|-----------------|-----------------|-----------------|-----------------|


  E E E E E E E E   E E E E E E E E   E E E E E E E E   E E E E E E E E
|-----------------|-----------------|-----------------|-----------------|
|-----------------|-----------------|-----------------|-----------------|
|-3-3-3-3-3-3-3-3-|-0-0-0-0-0-0-0-0-|-0-0-0-0-0-0-0-0-|-5-5-5-5-5-5-5-5-|
|-----------------|-----------------|-----------------|-----------------|


                    Outro
  E E E E E E E E    E E E E E E E E   E E E E E E E E   E E E E E E E E
|-----------------||-----------------|-----------------|-----------------|
|-----------------||-----------------|-----------------|-----------------|
|-3-3-3-3-3-3-3-3-||-0-0-0-0-0-0-0-0-|-0-0-0-0-0-0-0-0-|-5-5-5-5-5-5-5-5-|
|-----------------||-----------------|-----------------|-----------------|


  E E E E E E E E   E E E E E E E E   E E E E E E E E   E E E E E E E E
|-----------------|-----------------|-----------------|-----------------|
|-----------------|-----------------|-----------------|-----------------|
|-3-3-3-3-3-3-3-3-|-0-0-0-0-0-0-0-0-|-0-0-0-0-0-0-0-0-|-5-5-5-5-5-5-5-5-|
|-----------------|-----------------|-----------------|-----------------|


  E E E E E E E E   E E E E E E E E   E E E E E E E E   E E E E E E E E
|-----------------|-----------------|-----------------|-----------------|
|-----------------|-----------------|-----------------|-----------------|
|-3-3-3-3-3-3-3-3-|-0-0-0-0-0-0-0-0-|-0-0-0-0-0-0-0-0-|-5-5-5-5-5-5-5-5-|
|-----------------|-----------------|-----------------|-----------------|


  E E E E E E E E   E E E E E E E E   E E E E E E E E   E E E E E E E E
|-----------------|-----------------|-----------------|-----------------|
|-----------------|-----------------|-----------------|-----------------|
|-3-3-3-3-3-3-3-3-|-0-0-0-0-0-0-0-0-|-0-0-0-0-0-0-0-0-|-5-5-5-5-5-5-5-5-|
|-----------------|-----------------|-----------------|-----------------|


  E E E E E E E E   E E E E E E E E   E E E E E E E E   E E E E E E E E
|-----------------|-----------------|-----------------|-----------------|
|-----------------|-----------------|-----------------|-----------------|
|-3-3-3-3-3-3-3-3-|-0-0-0-0-0-0-0-0-|-0-0-0-0-0-0-0-0-|-5-5-5-5-5-5-5-5-|
|-----------------|-----------------|-----------------|-----------------|


  E E E E E E E E   E E E E E E E E   E E E E E E E E   E E E E E E E E
|-----------------|-----------------|-----------------|-----------------|
|-----------------|-----------------|-----------------|-----------------|
|-3-3-3-3-3-3-3-3-|-0-0-0-0-0-0-0-0-|-0-0-0-0-0-0-0-0-|-5-5-5-5-5-5-5-5-|
|-----------------|-----------------|-----------------|-----------------|


  E E E E E E E E   E E E E E E E E   E E E E E E E E   E E E E E E E E
|-----------------|-----------------|-----------------|-----------------|
|-----------------|-----------------|-----------------|-----------------|
|-3-3-3-3-3-3-3-3-|-0-0-0-0-0-0-0-0-|-0-0-0-0-0-0-0-0-|-5-5-5-5-5-5-5-5-|
|-----------------|-----------------|-----------------|-----------------|


  E E E E E E E E   E E E E E E E E   E E E E E E E E
|-----------------|-----------------|-----------------|
|-----------------|-----------------|-----------------|
|-3-3-3-3-3-3-3-3-|-0-0-0-0-0-0-0-0-|-0-0-0-0-0-0-0-0-|
|-----------------|-----------------|-----------------|


  E E E E E E E E   E E E E E E E E
|-----------------|-----------------*|
|-----------------|-----------------*|
|-5-5-5-5-5-5-5-5-|-3-3-3-3-3-3-3-3-*|
|-----------------|-----------------*|



Duration Legend
---------------
W - whole; H - half; Q - quarter; E - 8th; S - 16th; T - 32nd; X - 64th; a - acciaccatura
+ - note tied to previous; . - note dotted; .. - note double dotted
Uncapitalized letters represent notes that are staccato (1/2 duration)
Irregular groupings are notated above the duration line
Duration letters will always appear directly above the note/fret number it represents the
duration for.  Duration letters with no fret number below them represent rests.  Multi-
bar rests are notated in the form Wxn, where n is the number of bars to rest for.  Low
melody durations appear below the staff

Tablature Legend
----------------
 h   - hammer-on
 p   - pull-off
 b   - bend
 pb  - pre-bend
 r   - bend release (if no number after the r, then release immediately)
 /\  - slide into or out of (from/to "nowhere")
 s   - legato slide
 S   - shift slide
 - natural harmonic
[n]  - artificial harmonic
n(n) - tapped harmonic
 ~   - vibrato
 tr  - trill
 T   - tap
 TP  - trem. picking
 PM  - palm muting
\n/  - tremolo bar dip; n = amount to dip
 \n  - tremolo bar down
 n/  - tremolo bar up
/n\  - tremolo bar inverted dip
 =   - hold bend; also acts as connecting device for hammers/pulls
 <> - volume swell (louder/softer)
 x   - on rhythm slash represents muted slash
 o   - on rhythm slash represents single note slash

Misc Legend
-----------
 |  - bar
||  - double bar
||o - repeat start
o|| - repeat end
*|  - double bar (ending)
 :  - bar (freetime)
 $  - Segno
 &  - Coda
Tempo markers -  = BPM(8/16=s8/s16), where s8 = swing 8ths, s16 = swing 16ths





Comments


Popular Oasis tabs & chords
Champagne Supernova Bass Tabs
Champagne Supernova Chords
Cloudburst Chords
Just Getting Older 1 Chords
Let Forever Be Chords
Songbird 2 Chords
Angel Child Tabs
Little By Little Tabs
Half The World Away Live Ukulele
Love Like A Bomb Ukulele


Song lyrics



↑ Back to top | Tablatures and chords are parodies/interpretations of the original songs. You may use it for private study, scholarship, research or language learning purposes only
© 2014 AZChords.com Contact us | Privacy policy | DMCA | Add/correct tabs | Request tabs | Top 50 tabs