» » »

Oasis, Champagne Supernova Bass tabs (ver.3)

Artists:  A B C D E F G H I J K L M N O P Q R S T U V W X Y Z # 

Champagne Supernova Bass tabs (ver.3)

Oasis Tabs
 Rating:
4/5 (4 votes)
Champagne Supernova lessons Tabs too difficult? Try these video lessons and learn fast
1
                (Live)

CHAMPAGNE SUPERNOVA (Bassline)
As recorded by Oasis
(From the 2000 Album FAMILLIAR TO MILLIONS)

	

Words and Music by Noel Gallagher

Gtr I (E A D G) - 'Untitled'

  Q=75
 4/4
  Gtr I
  W          W          W
|----------|----------|------|
|----------|----------|------|
|----------|----------|------|
|----------|----------|------|


 4/4
  W          W          W          W
|----------|----------|----------|------|
|----------|----------|----------|------|
|----------|----------|----------|------|
|----------|----------|----------|------|


  W          W          W          W
|----------|----------|----------|------|
|----------|----------|----------|------|
|----------|----------|----------|------|
|----------|----------|----------|------|


  W          W          W          W
|----------|----------|----------|------|
|----------|----------|----------|------|
|----------|----------|----------|------|
|----------|----------|----------|------|


  W          W          W          W
|----------|----------|----------|------|
|----------|----------|----------|------|
|----------|----------|----------|------|
|----------|----------|----------|------|


  W          H    +Q.   E   H    +Q.   E   H    +Q.   E
|----------|-2----(2)---2-|-0----(0)---0-|--------------|
|----------|--------------|--------------|-4----(4)-----|
|----------|--------------|--------------|------------5-|
|----------|--------------|--------------|--------------|


  H    +Q.   E   H    +Q.   E   H    +Q.   E   H    +Q.   E
|--------------|--------------|--------------|--------------|
|------------5-|-7----(7)---7-|-5----(5)---5-|-4----(4)-----|
|-7----(7)-----|--------------|--------------|------------5-|
|--------------|--------------|--------------|--------------|


  H    +Q.   E   H    +Q.   E   H    +Q.   E   H    +Q.   E
|--------------|--------------|--------------|--------------|
|------------5-|-7----(7)---7-|-5----(5)---5-|-4----(4)-----|
|-7----(7)-----|--------------|--------------|------------5-|
|--------------|--------------|--------------|--------------|


  H    +Q.   E   H    +Q.   E   H    +Q.   E   H    +Q.   E
|--------------|--------------|--------------|--------------|
|------------5-|-7----(7)---7-|-5----(5)---5-|-4----(4)-----|
|-7----(7)-----|--------------|--------------|------------5-|
|--------------|--------------|--------------|--------------|


  H    +Q.   E   H    +Q.   E   H    +Q.   E   H    +Q.   E
|--------------|--------------|--------------|--------------|
|------------5-|-7----(7)---7-|-5----(5)---5-|-4----(4)-----|
|-7----(7)-----|--------------|--------------|------------5-|
|--------------|--------------|--------------|--------------|


  E E E. S E E Q    Q  Q  E E +Q     Q  Q  E E +Q     Q  Q  E E +Q
|-----------------|----------------|----------------|----------------|
|-----------------|----------------|----------------|----------------|
|-7-7-7--7-7-7----|----------------|----------------|----------------|
|--------------7--|-5--5--5-5-(5)--|-3--3--3-3-(3)--|-2--2--2-2-(2)--|


  E E +Q   Q  E E   Q  Q  E E +Q     Q  Q  E E +Q     Q  Q  E E +Q
|-----------------|----------------|----------------|----------------|
|-----------------|----------------|----------------|----------------|
|-----------------|----------------|----------------|----------------|
|-0-0-(0)--0--0-4-|-5--5--5-5-(5)--|-3--3--3-3-(3)--|-2--2--2-2-(2)--|


  E E +Q   Q  Q    E E E E E E E E   E E E E E E E E   E E E E E E E E
|----------------|-----------------|-----------------|-----------------|
|----------------|-----------------|-----------------|-----------------|
|----------------|-----------------|-----------------|-0-0-0-0-0-0-0-0-|
|-0-0-(0)--0--0--|-3-3-3-3-3-3-3-3-|-3-3-3-3-3-3-3-3-|-----------------|


  E E E E E E E E   E E E E E E E E   E E E E E E E E   E E E E E E E E
|-----------------|-----------------|-----------------|-----------------|
|-----------------|-----------------|-----------------|-----------------|
|-0-0-0-0-0-0-0-0-|-----------------|-5-5-5-5-5-5-5-5-|-7-7-7-7-7-7-7-7-|
|-----------------|-3-3-3-3-3-3-3-3-|-----------------|-----------------|


  E E E E E E E E   H    E E +E  E   H    E E +E  E   H    E E +E  E
|-----------------|----------------|----------------|----------------|
|-----------------|-7----7-7-(7)-7-|-5----5-5-(5)-5-|-4----4-4-(4)---|
|-7-7-7-7-7-7-7-7-|----------------|----------------|--------------5-|
|-----------------|----------------|----------------|----------------|


  H    E E +E  E   H    E E +E  E   H    E E +E  E   H    E E +E  E
|----------------|----------------|----------------|----------------|
|--------------5-|-7----7-7-(7)-7-|-5----5-5-(5)-5-|-4----4-4-(4)---|
|-7----7-7-(7)---|----------------|----------------|--------------5-|
|----------------|----------------|----------------|----------------|


  H    E E +E  E   H    +Q.   E   H    +Q.   E   H    +Q.   E
|----------------|--------------|--------------|--------------|
|--------------5-|-7----(7)---7-|-5----(5)---5-|-4----(4)-----|
|-7----7-7-(7)---|--------------|--------------|------------5-|
|----------------|--------------|--------------|--------------|


  H    +Q.   E   H    +Q.   E   H    +Q.   E   H    +Q.   E
|--------------|--------------|--------------|--------------|
|------------5-|-7----(7)---7-|-5----(5)---5-|-4----(4)-----|
|-7----(7)-----|--------------|--------------|------------5-|
|--------------|--------------|--------------|--------------|


  E E E. S E E Q    Q  Q  E E +Q     Q  Q  E E +Q     Q  Q  E E +Q
|-----------------|----------------|----------------|----------------|
|-----------------|----------------|----------------|----------------|
|-7-7-7--7-7-7----|----------------|----------------|----------------|
|--------------7--|-5--5--5-5-(5)--|-3--3--3-3-(3)--|-2--2--2-2-(2)--|


  E E +Q   Q  E E   Q  Q  E E +Q     Q  Q  E E +Q     Q  Q  E E +Q
|-----------------|----------------|----------------|----------------|
|-----------------|----------------|----------------|----------------|
|-----------------|----------------|----------------|----------------|
|-0-0-(0)--0--0-4-|-5--5--5-5-(5)--|-3--3--3-3-(3)--|-2--2--2-2-(2)--|


  E E +Q   Q  Q    E E E E E E E E   E E E E E E E E   E E E E E E E E
|----------------|-----------------|-----------------|-----------------|
|----------------|-----------------|-----------------|-----------------|
|----------------|-----------------|-----------------|-0-0-0-0-0-0-0-0-|
|-0-0-(0)--0--0--|-3-3-3-3-3-3-3-3-|-3-3-3-3-3-3-3-3-|-----------------|


  E E E E E E E E   E E E E E E E E   E E E E E E E E   E E E E E E E E
|-----------------|-----------------|-----------------|-----------------|
|-----------------|-----------------|-----------------|-----------------|
|-0-0-0-0-0-0-0-0-|-----------------|-5-5-5-5-5-5-5-5-|-7-7-7-7-7-7-7-7-|
|-----------------|-3-3-3-3-3-3-3-3-|-----------------|-----------------|


  E E E E E E E E   Q  Q  E E +E  E   Q  Q  E E +E  E   Q  Q  E E +E  E
|-----------------|-----------------|-----------------|-----------------|
|-----------------|-----------------|-----------------|-----------------|
|-7-7-7-7-7-7-7-7-|-----------------|-----------------|-----------------|
|-----------------|-5--5--5-5-(5)-5-|-3--3--3-3-(3)-3-|-2--2--2-2-(2)-2-|


  E E E E E E E E   Q  Q  E E +E  E   Q  Q  E E +E  E   Q  Q  E E +E  E
|-----------------|-----------------|-----------------|-----------------|
|-----------------|-----------------|-----------------|-----------------|
|-----------------|-0--0--0-0-(0)-0-|-----------------|-----------------|
|-1-1-1-1-3-3-3-3-|-----------------|-3--3--3-3-(3)-3-|-2--2--2-2-(2)-2-|


  E E E E E E E E   Q  Q  E E +E  E   Q  Q  E E +E  E   Q  Q  E E +E  E
|-----------------|-----------------|-----------------|-----------------|
|-----------------|-----------------|-----------------|-----------------|
|-----------------|-0--0--0-0-(0)-0-|-----------------|-----------------|
|-1-1-1-1-3-3-3-3-|-----------------|-3--3--3-3-(3)-3-|-2--2--2-2-(2)-2-|


  E E E E E E E E   Q  Q  E E +E  E   Q  Q  E E +E  E   Q  Q  E E +E  E
|-----------------|-----------------|-----------------|-----------------|
|-----------------|-----------------|-----------------|-----------------|
|-----------------|-0--0--0-0-(0)-0-|-----------------|-----------------|
|-1-1-1-1-3-3-3-3-|-----------------|-3--3--3-3-(3)-3-|-2--2--2-2-(2)-2-|


  E E E E E E E E   E E E E E E E E   E E E E E E E E   H    E E +E  E
|-----------------|-----------------|-----------------|-2----2-2-(2)-2-|
|-----------------|-----------------|-----------------|----------------|
|-----------------|-----------------|-----------------|----------------|
|-1-1-1-1-3-3-3-3-|-1-1-1-1-3-3-3-3-|-1-1-1-1-3-3-3-3-|----------------|


  H    E E +E  E   H    E E +E  E   H    E E +E  E   H    E E +E  E
|-0----0-0-(0)-0-|----------------|----------------|----------------|
|----------------|-4----4-4-(4)---|--------------5-|-7----7-7-(7)-7-|
|----------------|--------------5-|-7----7-7-(7)---|----------------|
|----------------|----------------|----------------|----------------|


  H    E E +E  E   H    E E +E  E   H    E E +E  E   H    E E +E  E
|----------------|----------------|----------------|----------------|
|-5----5-5-(5)-5-|-4----4-4-(4)---|--------------5-|-7----7-7-(7)-7-|
|----------------|--------------5-|-7----7-7-(7)---|----------------|
|----------------|----------------|----------------|----------------|


  H    E E +E  E   H    E E +E  E   H    E E +E  E   H    E E +E  E
|----------------|----------------|----------------|----------------|
|-5----5-5-(5)-5-|-4----4-4-(4)---|--------------5-|-7----7-7-(7)-7-|
|----------------|--------------5-|-7----7-7-(7)---|----------------|
|----------------|----------------|----------------|----------------|


  H    E E +E  E   H    E E +E  E   H    E E +E  E   H    E E +E  E
|----------------|----------------|----------------|----------------|
|-5----5-5-(5)-5-|-4----4-4-(4)---|--------------5-|-7----7-7-(7)-7-|
|----------------|--------------5-|-7----7-7-(7)---|----------------|
|----------------|----------------|----------------|----------------|


  H    E E +E  E   H    E E +E  E   H    E E +E  E   H    E E +E  E
|----------------|----------------|----------------|----------------|
|-5----5-5-(5)-5-|-4----4-4-(4)---|--------------5-|-7----7-7-(7)-7-|
|----------------|--------------5-|-7----7-7-(7)---|----------------|
|----------------|----------------|----------------|----------------|


  H    E E +E  E   H    E E +E  E
|----------------|----------------|
|-5----5-5-(5)-5-|-4----4-4-(4)---|
|----------------|--------------5-|
|----------------|----------------|


             H.=H         Q=65
  W          W          W
|----------|----------|-------*|
|----------|----------|-------*|
|----------|----------|-0-----*|
|-1--------|-3--------|-------*|



Duration Legend
---------------
W - whole; H - half; Q - quarter; E - 8th; S - 16th; T - 32nd; X - 64th; a - acciaccatura
+ - note tied to previous; . - note dotted; .. - note double dotted
Uncapitalized letters represent notes that are staccato (1/2 duration)
Irregular groupings are notated above the duration line
Duration letters will always appear directly above the note/fret number it represents the
duration for.  Duration letters with no fret number below them represent rests.  Multi-
bar rests are notated in the form Wxn, where n is the number of bars to rest for.  Low
melody durations appear below the staff

Tablature Legend
----------------
 h   - hammer-on
 p   - pull-off
 b   - bend
 pb  - pre-bend
 r   - bend release (if no number after the r, then release immediately)
 /\  - slide into or out of (from/to "nowhere")
 s   - legato slide
 S   - shift slide
 - natural harmonic
[n]  - artificial harmonic
n(n) - tapped harmonic
 ~   - vibrato
 tr  - trill
 T   - tap
 TP  - trem. picking
 PM  - palm muting
\n/  - tremolo bar dip; n = amount to dip
 \n  - tremolo bar down
 n/  - tremolo bar up
/n\  - tremolo bar inverted dip
 =   - hold bend; also acts as connecting device for hammers/pulls
 <> - volume swell (louder/softer)
 x   - on rhythm slash represents muted slash
 o   - on rhythm slash represents single note slash

Misc Legend
-----------
 |  - bar
||  - double bar
||o - repeat start
o|| - repeat end
*|  - double bar (ending)
 :  - bar (freetime)
 $  - Segno
 &  - Coda
Tempo markers -  = BPM(8/16=s8/s16), where s8 = swing 8ths, s16 = swing 16ths
            
Submit corrections

comments powered by Disqus
↑ Back to top | Oasis Bass for Champagne Supernova. Lyrics for acoustic guitar and electric guitar. 1 Tablatures and chords are parodies/interpretations of the original songs. You may use it for private study, scholarship, research or language learning purposes only