» » »

Oasis, Champagne Supernova Bass tabs (ver.2)

Artists:  A B C D E F G H I J K L M N O P Q R S T U V W X Y Z # 

Champagne Supernova Bass tabs (ver.2)

Oasis Tabs
 Rating:
4/5 (4 votes)
Champagne Supernova lessons Tabs too difficult? Try these video lessons and learn fast
1
                
CHAMPAGNE SUPERNOVA (Bassline)
As recorded by Oasis
(From the 1995 Album (WHAT'S THE STORY) MORNING GLORY?)

	

Words and Music by Noel Gallagher

Gtr I (E A D G) - 'Untitled'

 Intro                      1st Verse
  Q=75
 4/4
  Gtr I
  Wx2          Wx8           Wx8
|------------|------------||--------|
|------------|------------||--------|
|------------|------------||--------|
|------------|------------||--------|


   1st Chorus
                                             1.
    Asus2         Asus2/G       Asus2/F#      Asus2/E
    H.      E e   H.      E E   H.      E E   H.      E E
||--------------|-------------|-------------|-----------0--||
||o-7---------7-|-5---------5-|-4---------0-|-2-----------o||
||o-------------|-------------|-------------|-------------o||
||--------------|-------------|-------------|--------------||


  2.
    Asus2/E          Asus2
  H    +E  e S s e   Q  Q  E Q.
|--------------7-7-|--------------|
|-2----(2)-7-------|-7--7--7-7----|
|------------------|--------------|
|------------------|--------------|


  Asus2/G         Asus2/F#        Asus2/E
  Q  Q  E E E E   Q  Q  E E E E   Q  Q  E Q  E
|---------------|---------------|------------0--|
|-5--5--5-5-5-5-|-4--4--4-4-4-0-|-2--2--2-2-----|
|---------------|---------------|---------------|
|---------------|---------------|---------------|


   2nd and 3rd Verses
                                                      1.
    Asus2              Asus2/G         Asus2/F#        Asus2/E
    Q  E. S S S Q.     Q  Q  E E E E   Q  Q  E E E E   Q  E. S E q  E
||-------------------|---------------|---------------|--------------0---||
||o-7--7--7-7p5-7----|-5--5--5-5-5-5-|-4--4--4-4-4-0-|-2--2--2-2-2-----o||
||o------------------|---------------|---------------|-----------------o||
||-------------------|---------------|---------------|------------------||


                        2nd and 3rd Choruses
  2.
  E                      A                G5                 D/F#
  E E E. S E E S S E     Q  Q  S S E Q    E E Q  E E E  E    Q  Q  E E E E
|--------------------||-----------------|------------------|----------------|
|-2-2-2--2-2-2-0-----||o----7--7-x-7-7--|-5-5-5--5-5-5-(5)-|-4--4--4-4-4-4--|
|----------------4-2-||o-0--------------|------------------|----------------|
|--------------------||-----------------|------------------|----------------|


  1.                 2.
  E                  E                G5
  E E Q  E E E E     E E Q  E E E E   E E E. S E E E.  S    E E E S S Q  Q
|--------------0--||----------------|---------------------|-----------------|
|-2-2-2--2-2-2---o||-2-2-2--2-2-2-4-|-5-5-5--5-5-5-5--(5)-|-5-5-5-5-5-5--5--|
|----------------o||----------------|---------------------|-----------------|
|-----------------||----------------|---------------------|-----------------|


  A                                        G5
  E E Q  S S E E E   E E E E S S E S S E   Q  E. S E E E. S
|------------------|---------------------|------------------|
|-7-7-7--7-7-7-7-5-|-7-7-7-7-7-7-7-7-7-7-|-5--5--5-5-5-5--5-|
|------------------|---------------------|------------------|
|------------------|---------------------|------------------|


  D                    E                  E7
  E E E. S S S E E E   Q  E. S S S E Q    Q  Q  E E Q
|--------------------|------------------|--------------|
|-0-0-0--0-0-0-0-0-1-|-2-----2-0h2------|-2--2--2-2-2--|
|--------------------|---------------2--|--------------|
|--------------------|----0--------0----|--------------|


    Asus2                 Asus2/G        Asus2/F#
    Q  E. S S S E +E  E   Q  Q  e Q  E   Q  E. S E Q  E
||----------------------|--------------|----------------|
||o-7--7--7-7p5-7-(7)---|-5--5--5-5--5-|-4--4--4-4-4--0-|
||o---------------------|--------------|----------------|
||----------------------|--------------|----------------|


  Asus2/E                 Asus2
  Q  +E. S E Q  E         Q  E. S S S Q.
|---------------0--||-||-------------------|
|-2--(2)-2-2-2----o||-||o-7--7--7-7p5-7----|
|-----------------o||-||o------------------|
|------------------||-||-------------------|


                                 1.
  Asus2/G         Asus2/F#        Asus2/E
  Q  Q  E E E E   Q  Q  E E E E   Q  E. S E q  E
|---------------|---------------|--------------0--||
|-5--5--5-5-5-5-|-4--4--4-4-4-0-|-2--2--2-2-2----o||
|---------------|---------------|----------------o||
|---------------|---------------|-----------------||


  2.
  E                      A                G5                 D/F#
  E E E. S E E S S E     Q  Q  S S E Q    E E Q  E E E  E    Q  Q  E E E E
|--------------------||-----------------|------------------|----------------|
|-2-2-2--2-2-2-0-----||o----7--7-x-7-7--|-5-5-5--5-5-5-(5)-|-4--4--4-4-4-4--|
|----------------4-2-||o-0--------------|------------------|----------------|
|--------------------||-----------------|------------------|----------------|


  1.                 2.
  E                  E                G5                    G5
  E E Q  E E E E     E E Q  E E E E   E E E. S E E E.  S    E E E S S Q  Q
|--------------0--||----------------|---------------------|-----------------|
|-2-2-2--2-2-2---o||-2-2-2--2-2-2-4-|-5-5-5--5-5-5-5--(5)-|-5-5-5-5-5-5--5--|
|----------------o||----------------|---------------------|-----------------|
|-----------------||----------------|---------------------|-----------------|


  A                  A                     G5
  E E Q  S S E E E   E E E E S S E S S E   Q  E. S E E E. S
|------------------|---------------------|------------------|
|-7-7-7--7-7-7-7-5-|-7-7-7-7-7-7-7-7-7-7-|-5--5--5-5-5-5--5-|
|------------------|---------------------|------------------|
|------------------|---------------------|------------------|


  D                    E                  E7
  E E E. S S S E E E   Q  E. S S S E Q    Q  Q  E E Q
|--------------------|------------------|--------------|
|-0-0-0--0-0-0-0-0-1-|-2-----2-0h2------|-2--2--2-2-2--|
|--------------------|---------------2--|--------------|
|--------------------|----0--------0----|--------------|


   Guitar Solo
    A5               G5         D/F#
    Q  Q  S S E Q    Q  Q  Q  E  E    Q  E. S E E Q
||-----------------|----------------|----------------|
||o-7--7--5h7-7-7--|-5--5--5--5-----|-4--4--4-4-4-4--|
||o----------------|------------(7)-|----------------|
||-----------------|----------------|----------------|


  F       G5              F        G
  E E E E E E E E  4x     E E E. S E E E e
|------------------||-||--------------------||
|-3-3-3-3-5-5-5-5-o||-||o-3-3-3--3-5-5-5-5-o||
|-----------------o||-||o------------------o||
|------------------||-||--------------------||


  Asus2             Asus2/G
  H    S S E +Q     Q  E. S E E Q
|-----------------|-----------------|
|-7----7p5-7-(7)--|-5--5--5-5-5-5---|
|-----------------|-----------------|
|-----------------|-----------------|


                                         4th Verse
  Asus2/F#           Asus2/E              Asus2
  Q  +E. S E E E E   Q  +E. S E E E E     Q  E. S S S E E E
|------------------|------------------||--------------------|
|-4--(4)-4-4-4-4-0-|-2--(2)-2-2-2-2-5-||o-7--7--7-7p5-7-7-7-|
|------------------|------------------||o-------------------|
|------------------|------------------||--------------------|


  Asus2/G           Asus2/F#
  Q  E. S E E E E   Q  Q  E E E E
|-----------------|---------------|
|-5--5--5-5-5-5-5-|-4--4--4-4-4-0-|
|-----------------|---------------|
|-----------------|---------------|


  Asus2/E              Asus2/F#
  E E E. S E E E E  5x Q  Q  E E E E   Wx10
|-------------------||---------------|---------*|
|-2-2-2--2-2-2-2-5-o||-4--4--4-4-4---|---------*|
|------------------o||---------------|---------*|
|-------------------||---------------|---------*|



Duration Legend
---------------
W - whole; H - half; Q - quarter; E - 8th; S - 16th; T - 32nd; X - 64th; a - acciaccatura
+ - note tied to previous; . - note dotted; .. - note double dotted
Uncapitalized letters represent notes that are staccato (1/2 duration)
Irregular groupings are notated above the duration line
Duration letters will always appear directly above the note/fret number it represents the
duration for.  Duration letters with no fret number below them represent rests.  Multi-
bar rests are notated in the form Wxn, where n is the number of bars to rest for.  Low
melody durations appear below the staff

Tablature Legend
----------------
 h   - hammer-on
 p   - pull-off
 b   - bend
 pb  - pre-bend
 r   - bend release (if no number after the r, then release immediately)
 /\  - slide into or out of (from/to "nowhere")
 s   - legato slide
 S   - shift slide
 - natural harmonic
[n]  - artificial harmonic
n(n) - tapped harmonic
 ~   - vibrato
 tr  - trill
 T   - tap
 TP  - trem. picking
 PM  - palm muting
\n/  - tremolo bar dip; n = amount to dip
 \n  - tremolo bar down
 n/  - tremolo bar up
/n\  - tremolo bar inverted dip
 =   - hold bend; also acts as connecting device for hammers/pulls
 <> - volume swell (louder/softer)
 x   - on rhythm slash represents muted slash
 o   - on rhythm slash represents single note slash

Misc Legend
-----------
 |  - bar
||  - double bar
||o - repeat start
o|| - repeat end
*|  - double bar (ending)
 :  - bar (freetime)
 $  - Segno
 &  - Coda
Tempo markers -  = BPM(8/16=s8/s16), where s8 = swing 8ths, s16 = swing 16ths
            
Submit corrections

comments powered by Disqus
↑ Back to top | Oasis Bass for Champagne Supernova. Lyrics for acoustic guitar and electric guitar. 1 Tablatures and chords are parodies/interpretations of the original songs. You may use it for private study, scholarship, research or language learning purposes only