» » »

Oasis, Angel Child Tabs (ver.3)

Artists:  A B C D E F G H I J K L M N O P Q R S T U V W X Y Z # 

Angel Child Tabs (ver.3)

Oasis Tabs
 Rating:
4/5 (4 votes)
Angel Child lessons Tabs too difficult? Try these video lessons and learn fast
1
                Angel Child
words and music by noel Gallagher

Off the single "D'You know What i Mean?"



Chords

(EADGBe)


Am		002210
Em		022000
Dsus2		x00230
Fsus2		033010
C		032010
G		320033
D		x00232
Dsus2/Ab	x00130
Dsus2/G		x00030


Note:
played at the end of each Dsus2 in the verse           
e---0------------0----------------
----3/5----------1-----------------
----2/4----2--0--2-----------------
----0------------2-----------------
-----------------0-----------------
E----------------------------------


Verse 1:


         Am      Em  Dsus2
Won't you take me
          Am 		 Em	 Dsus2
Won't you take me to the edge of night and
Am	Em  Dsus2
Make me
	  Am             Em	Dsus2
Won't you make me walk into the light
		  Am	  Em   Dsus2
And there will be no eyes
   	     Am			  Em	     Dsus2	
No eyes that see such beauty that lose their sight
		  Am	   Em   Dsus2
And there will be no lies,
   Am				Em	    Dsus2
No lies that you can tell me to make things right


Pre-Chrous:

Fsus2	    C	     G		D
Cause I gave all my money to people and things
        Fsus2		C	       G	    D
And the price I'm still paying for the sh*t that it brings
	Fsus2	     C		  G		 D
Doesn't fill me with hope for the songs that you sing 



Dsus2             Dsus2/Ab         Dsus2/G		G     D
Tonight, this is your life, this is your life,		angel child
--------0---0------------0---0------------0---0-------------------------------
------3---3---3--------3---3---3--------3---3---3-----------------------------
----2-----------2----1------------1---0-----------0---------------------------
--0----------------0----------------0-----------------------------------------
------------------------------------------------------------------------------
------------------------------------------------------------------------------



Verse 2:
	 Am	   Em 	 Dsus2
When you find out,

         Am	  Em	  Dsus2
When you find out who you are

    		 Am	  Em    Dsus2
You know you'll, be free

   Am		 			   Em	 Dsus2	
To see your own appearence to then there'd be no eyes,

   Am				    Em	       Dsus2
No eyes have seen such beauty would lose there sight,
		
		Am	  Em 	Dsus2
And there'll be no lies,

   Am				  Em	      Dsus2
No lies that you could tell me to make things right,



Pre-Chrous:

Fsus2	    C	     G		D
Cause I gave all my money to people and things
        Fsus2		C	       G	    D
And the price I'm still paying for the sh*t that it brings
	Fsus2	     C		  G		 D
Doesn't fill me with hope for the songs that you sing 



Dsus2             Dsus2/Ab         Dsus2/G		G     D
Tonight, this is your life, this is your life,		angel child
--------0---0------------0---0------------0---0-------------------------------
------3---3---3--------3---3---3--------3---3---3-----------------------------
----2-----------2----1------------1---0-----------0---------------------------
--0----------------0----------------0-----------------------------------------
------------------------------------------------------------------------------
------------------------------------------------------------------------------


Play After the 2nd verse and chrous


--3333-1--------------------
--5555-3--------------------
---------------1--2---------
-------------2--------------
-----------2----------------
----------------------------

solo:

Guitar Solo:

    F	   C		      E          Am          F     C  
e---------------------------------------------------------------------------
B---------------------------------------------------------------------------
G--------5-------------------------------5-------5-------5------------------
D---5s7-----------5----------------5--7------5h7-----5h7---------5----------
A------------5s7-----7--5/3---5s7---------------------------5s7-----7/5-3---
E---------------------------------------------------------------------------

  E	    Am            F	       C       E	      Am  
e---------------------------------------------------8--8h10p8----------------
B--------------------------------------8--10---8h10-----------10-------------
G------------------5h7-5-------5--7s9---------------------------------5h7-5--
D-----5--------5h7--------5h7-------------------------------------5h7--------
A-5s7---7/5-3----------------------------------------------------------------
E----------------------------------------------------------------------------
   F	       C       G
e---------------------------------------------------------------------------
B---------------------------------------------------------------------------
G--------------5--7----7b8--7--5--5h7---------------------------------------
D------3--5s7---------------------------------------------------------------
A--3h5----------------------------------------------------------------------
E---------------------------------------------------------------------------


Outro:


Dsus2             Dsus2/Ab         Dsus2/G		G     D
Tonight, this is your life, this is your life,		angel child
--------0---0------------0---0------------0---0-------------------------------
------3---3---3--------3---3---3--------3---3---3-----------------------------
----2-----------2----1------------1---0-----------0---------------------------
--0----------------0----------------0----------------------------------------- X4
------------------------------------------------------------------------------
------------------------------------------------------------------------------

then just reapeat the above to fade.

GREAT TUNE!
            
Submit corrections

comments powered by Disqus
↑ Back to top | Oasis Tabs for Angel Child. Lyrics for acoustic guitar and electric guitar. 1 Tablatures and chords are parodies/interpretations of the original songs. You may use it for private study, scholarship, research or language learning purposes only