» » »

All Around The World (Reprise) Tabs (ver.2)

Artists:  A B C D E F G H I J K L M N O P Q R S T U V W X Y Z # 

All Around The World (Reprise) Tabs (ver.2)

Oasis
Rating:
0/5 (0 votes)

Hard to play? Try these video lessons and learn fast.
                ---------------------------------
 OASIS-All About The Music-OASIS
---------------------------------

All Around The World (Reprise)

(Gallagher)



Chords Used:
D     (xx0232)
E/D   (xx0454)
G/D   (xx0033)
E     (022100)
G     (320033)
D5    (xx023x)
E5    (022xxx)
G5    (355xxx)
Dsus4 (xx0233)


(This is the trumpet fill which is arranged for guitar)
  
|-----10-12-14-12-10-12-10---------2-------------|
|--10-------------------------3--5---5--3--5--3--| (Repeat again
|---------------------------2--------------------|  but over these 
|------------------------------------------------|  chords D E/D G/D)
|------------------------------------------------|  
|------------------------------------------------|

(This is the brass fill which arranged for guitar)
   D5                E5                    G5                    
|--2--------------------2------------------------------2---2-----|
|-------5-----3------5------------------3----------------------3-|
|----------------------------4-------4----------4---2------------|
|----------------------------------------------------------------|
|----------------------------------------------------------------|
|----------------------------------------------------------------|

(This fills are basically repeated throughout the song, with slight
 variations)

The song ends with this chord sequence, which is repeated to fade
|--2-----2-----3-----3---3-|-2--
|--3-----3-----3-----3---3-|-3-- (Repeat)
|--2-----2-----2-----2---2-|-2--
|--0-----0-----0-----0---0-|-0--
|--------------------------|----
|--------------------------|----

Any comments or corrections, please feel free to e-mail me
            
Hard to play? Try these video lessons and learn fast. | Correct




comments powered by Disqus
↑ Back to top | Tablatures and chords are parodies/interpretations of the original songs. You may use it for private study, scholarship, research or language learning purposes only