» » »

Oasis, A Bell Will Ring Tabs (ver.1)

Artists:  A B C D E F G H I J K L M N O P Q R S T U V W X Y Z # 

A Bell Will Ring Tabs (ver.1)

Oasis Tabs
 Rating:
4.6/5 (9 votes)
A Bell Will Ring lessons Tabs too difficult? Try these video lessons and learn fast
                -------------------------------------------------------------------------------
                             Oasis - A Bell Will Ring
-------------------------------------------------------------------------------


Tuning: Standard

It's not neccessary, but playing with a capo on the second fret helps.


INTRO

e|---------------------------------------------------------------------------|
B|------5-5-7--4-4-4h5p4-----------------------5-5-7-4-4-4h5p4---------------|
G|----6------------------6-----6--6--6-6-----6-----------------6-----6-6-----|
D|--4----------------------4-4-----------2/4---------------------4-4-4-------|
A|---------------------------------------------------------------------------|
E|---------------------------------------------------------------------------|

e|----------------------2--2-2-2-2-2-----------------------------------------|
B|----------------------2--2-2-2-2-2-----------------------------------------|
G|--4-----4-4-4-----4-4-3--3-3-3-3-3-----------------------------------------|
D|----2-2-2---------x---4--4-4-4-4-4-----------------------------------------|
A|--------------6-6-6---4--4-4-4-4-4-----------------------------------------|
E|----------------------2--2-2-2-2-2-----------------------------------------|

VERSE (LISTEN TO SONG FOR STRUMMING PATTERN)

E
a little space, a little time
Dsus2           E
see what it can do

a little faith, piece of mind
Dsus2                E     
see what passes through
Dsus2                 Asus2  
the sun will shine on you again
Dsus2              Asus2      
a bell will ring inside your head
    Dsus2             E    
and all will be brand new

CONTINUE PLAYING THE E UNTIL THE SECOND VERSE COMES IN. THE SECOND VERSE IS
PLAYED THE SAME WAY AS THE FIRST:

come alive, come on in
something that you know
the world's as wide as your life is thin
so entertain your goals

the sun will shine on you again
a bell will ring inside your head
and all will be brand new

AFTER THIS VERSE, THIS RIFF COMES IN
                                
                                   all will be brand new
e|---------------------------------------------------------------------------|
B|---------------------------------------------------------------------------|
G|---------------------------------------------------------------------------|
D|--------2-4-4-4-4-4-4-4--------2-4-4-4-4-4-4-4-----------------------------|
A|----2/4--------------------2/4---------------------------------------------|
E|--2----------------------2-------------------------------------------------|

e|---------------------------------------------------------------------------|
B|---------------------------------------------------------------------------|
G|---------------------------------------------------------------------------|
D|--------2-4-4-4-4-4-4-4--------2-4-4-4-4-4-4-4-----------------------------|
A|----2/4--------------------2/4---------------------------------------------|
E|--2----------------------2-------------------------------------------------|

VERSE (NORMAL STRUCTURE)

I can tell you what you wanna hear
I’ve been there once before
you put me through my empty night
sleepless on your floor

the sun will shine on you again
a bell will ring inside your head
and all will be brand new

                                   all will be brand new
e|---------------------------------------------------------------------------|
B|---------------------------------------------------------------------------|
G|---------------------------------------------------------------------------|
D|--------2-4-4-4-4-4-4-4--------2-4-4-4-4-4-4-4-----------------------------|
A|----2/4--------------------2/4---------------------------------------------|
E|--2----------------------2-------------------------------------------------|
                                   all will be brand new
e|---------------------------------------------------------------------------|
B|---------------------------------------------------------------------------|
G|---------------------------------------------------------------------------|
D|--------2-4-4-4-4-4-4-4--------2-4-4-4-4-4-4-4-----------------------------|
A|----2/4--------------------2/4---------------------------------------------|
E|--2----------------------2-------------------------------------------------|


e|---------------------------------------------------------------------------|
B|------5-5-7--4-4-4h5p4-----------------------5-5-7-4-4-4h5p4---------------|
G|----6------------------6-----6--6--6-6-----6-----------------6-----6-6-----|
D|--4----------------------4-4-----------2/4---------------------4-4-4-------|
A|---------------------------------------------------------------------------|
E|---------------------------------------------------------------------------|

e|----------------------2--2-2-2-2-2------------------------2----------------|
B|----------------------2--2-2-2-2-2------------------------2----------------|
G|--4-----4-4-4-----4-4-3--3-3-3-3-3------4-4-4-----4-4-4---3----------------|
D|----2-2-2---------x---4--4-4-4-4-4--2-2-------------------4----------------|
A|--------------6-6-6---4--4-4-4-4-4------------6-6-------6-4----------------|
E|----------------------2--2-2-2-2-2------------------------2----------------|





| /  slide up
| \  slide down
| h  hammer-on
| p  pull-off
| ~  vibrato
| +  harmonic
| x  Mute note
===============================================================================
            
Submit corrections

comments powered by Disqus
↑ Back to top | Oasis Tabs for A Bell Will Ring. Lyrics for acoustic guitar and electric guitar. Tablatures and chords are parodies/interpretations of the original songs. You may use it for private study, scholarship, research or language learning purposes only