» » »

Destination Tabs (ver.2)

Artists:  A B C D E F G H I J K L M N O P Q R S T U V W X Y Z # 

Destination Tabs (ver.2)

O.A.R.
Rating:
0/5 (0 votes)

Hard to play? Try these video lessons and learn fast.
                (Intro1)
e---10---10---10---10---8---8--8---9\10---|
B---10---10---10---10---8---8--8---9\10---|
G---11---11---11---11---9---9--9---10\11--|
D---12---12---12---12---10-10-10---11\12--|
A-----------------------------------------|
E-----------------------------------------|

e--10-x-x-x-10-x-x-x-10-x-x-x-10-x-x-x-8-x-x-x-8--8----9\10-----10-|
B--10-x-x-x-10-x-x-x-10-x-x-x-10-x-x-x-8-x-x-x-8--8----9\10-----10-|
G--11-x-x-x-11-x-x-x-11-x-x-x-11-x-x-x-9-x-x-x-9--9----10\11----11-|
D--12-x-x-x-12-x-x-x-12-x-x-x-12-x-x-x-10x-x-x-10-10---11\12----12-|
A------------------------------------------------------------------|
E------------------------------------------------------------------|

e--10-10-10--14--12--10-10-12-10---8--x-8--8-----9\10----10-|
B--10-10-10--10--10--10-10-10-10---8--x-8--8-----9\10----10-|
G--11-11-11--11--11--11-11-11-11---9--x-9--9-----10\11---11-|
D--12-12-12--12--12--12-12-12-12---10-x-10-10----11\12---12-|
A-----------------------------------------------------------|
E-----------------------------------------------------------|

e--10-10-10--14--12--15--14-----8----8--8----|
B--10-10-10--10--10--10--10-----8----8--8----|
G--11-11-11--11--11--11--11-----9----9--9----|
D--12-12-12--12--12--12--12-----10---10-10---|
A--------------------------------------------|
E--------------------------------------------|

there are more mutes then i actually put on here i think.its easiest to play it like bar 
and use your pinky for the 14--12 and 14--12--15--14 parts. i wasnt listening to the 
when i did this so you can listen and figure out the correct rythems and mutes but i
almost positive this is the right way to play it
            
Hard to play? Try these video lessons and learn fast. | Correct




comments powered by Disqus
↑ Back to top | Tablatures and chords are parodies/interpretations of the original songs. You may use it for private study, scholarship, research or language learning purposes only