» » »

O.A.R., Dareh Meyod Bass tabs (ver.1)

Artists:  A B C D E F G H I J K L M N O P Q R S T U V W X Y Z # 

Dareh Meyod Bass tabs (ver.1)

O.A.R. Tabs
Rating:
0/5 (0 votes)
Dareh Meyod lessons Tabs too difficult? Try these video lessons and learn fast
                Band: O.A.R.


Here are TWO OF MY INTERPRETATIONS OF THE INTRO:


(#1) *Standard Tuning*

Intro

G|---------------------|
D|---------------------|
A|4---11-11-11-14-11/-4|
E|---------------------|

Sometimes it’s alternated like:

G|-------------------|
D|-------------------|
A|4---11-11-11-7-6-4-|
E|-------------------|

Repeat that for a LONG time. Until the speed picks up and goes into the verses.

When it picks up tempo just repeat:

G|---|
D|---|
A|4--|
E|---|

…until the verse


(#2)  *Drop C# Tuning*

Intro

G |------------------|
D |------------------|
A |------------------|
C#|0---7-7-7-10-7/-0-|

Sometimes it is alternated like so:

G |------------------|
D |------------------|
A |------------------|
C#|0---7—7-7-3-2-0---|

Repeat that for a LONG time. Until the speed picks up and goes into the verses.

When it picks up tempo just repeat:

G |---|
D |---|
A |4--|
C#|---|

…until the verse



OK...now for the verses, chorus, and solo.

If you’ve decided to play the “Drop C#” interpretation then you will have to transcribe 
yourself :(


Verses

|----------------------------|
|----------------------------|
|4-2-4-2-4-2---------------2-|
|------------4-2-4-2-4-2-4---|

|----------------------------|
|------------------------2-1-|
|4-2-4-2-4-2-----------------|
|------------4-2-4-2-4-2-----|


|----------------------------|
|----------------------------|
|4-2-4-2-4-2---------------2-|
|------------4-2-4-2-4-2-4---|

|------------------------|
|------------------------|
|0-0-0-----------------2-|
|------4-2-0-0-0-0-0-4---|

(repeat until chorus)

Chorus

|-----------------|
|--2—--2----------|
|4---4------2---2-| (repeat until end of chorus)
|--------4---4----|


End of Chorus

|------------------------|
|------------------------|
|0-0-0-----------------2-|
|------4-2-0-0-0-0-0-4---|

Solo

|--6-4---4h6p4---4-|
|------6-------6---|
|4-----------------|
|------------------|
            

comments powered by Disqus
↑ Back to top | O.A.R. Bass for Dareh Meyod. Lyrics for acoustic guitar and electric guitar. Tablatures and chords are parodies/interpretations of the original songs. You may use it for private study, scholarship, research or language learning purposes only