» » »

O.A.R., Dareh Meyod Tabs (ver.2)

Artists:  A B C D E F G H I J K L M N O P Q R S T U V W X Y Z # 

Dareh Meyod Tabs (ver.2)

O.A.R. Tabs
4/5 (4 votes)
Dareh Meyod lessons Tabs too difficult? Try these video lessons and learn fast
First Tab! Even though I put only the intro, I tabbed another part at 5:25.  At the last 
of the intro, the timing is different than the other parts so listen to the song or get 
album "Live at 34th and 8th" by OAR.

INTRO: (:38)
E: ------------------------|
B: ------------------------|
G: ------------------------|
D: ------------------------|
A: -2--4-4-4--2--4--2------|
E: ------------------------|
E: ----------------------------------------------------|
B: ----------------------------------------------------|
G: ----------------------------------------------------|
D: ----------------------------------------------------|
A: -2--4-4-4--2--4--2--2--2--2-------------------------|
E: ---------------------------------4-4-4-4-/2-2-2-----|
E: ----------------------------------------------------------|
B: ----------------------------------------------------------|
G: ----------------------------------------------------------|
D: -2--4-4-4--2--4--2--2--2--2-------------------2-2---------|
A: ---------------------------------4-4-4-4-/2--4------------|
E: ----------------------------------------------------------|
E: --------------------------------------------------------|
B: --------------------------------------------------------|
G: --------------------------------------------------------|
D: -2-4-4-4--2--4---2---2----------------------------------|
A: ---------------------------4--4--2--4-------------------|
E: --------------------------------------------------------|

NON-INTRO Part (5:25)
4X With distortion
E: ------------------------------|
B: ------------------------------|
G: ------------------------------|
D: ------------------------------|
A: ---4-4-2-4-2-------------2----|
E: -------------4-2-4-4-2-4------|

Great song!
Submit corrections

comments powered by Disqus
↑ Back to top | O.A.R. Tabs for Dareh Meyod. Lyrics for acoustic guitar and electric guitar. Tablatures and chords are parodies/interpretations of the original songs. You may use it for private study, scholarship, research or language learning purposes only