» » »

O.A.R., Conquering Fools Tabs (ver.2)

Artists:  A B C D E F G H I J K L M N O P Q R S T U V W X Y Z # 

Conquering Fools Tabs (ver.2)

O.A.R. Tabs
 Rating:
4/5 (4 votes)
Conquering Fools lessons Tabs too difficult? Try these video lessons and learn fast
1
                (Intro)
OAR-Conquering Fools
^ = no. of bends
\(rhythm)= upstroke |\(lead) = slide back
/(rhythm)= upstroke |/(lead) = slide up
~ = let ring (each one is a count)

Gtr. 1 (intro and fill after verse 1)
(Reggae Rhythm)   Bar Chords (only first count is downstroke)
No Chord           E           Db             A#                    
    1 2 3 4 5 6 7 |1 2 3 4 5 6 7|1 2 3 4 5 6 7|1 2 3 4 5 6 7| 
Gtr.2
E---------------------------------------------------------I repeat 2 x
B---12p10\9-10p9------------------------------------------I 
G---------------11-9~~-------9--9h11-11b(13)^^11b(13)p9---I 
D-----------------------9h11----------------------------9-I 
 
(repeat this before going into verse)   
    B              E
    1 2 3 4 5 6 7| 1 2
E---------------------I
B---12p10\9-10p9------I
G---------------11-9~~I
D---------------------I

Thats the intro and fills...listen to the song for timing, its a little tricky
(theres a lot of changes) but you'll get it.  I am currently working on the
solos should have those soon.  Enjoy, J.R.
            
Submit corrections

comments powered by Disqus
↑ Back to top | O.A.R. Tabs for Conquering Fools. Lyrics for acoustic guitar and electric guitar. 1 Tablatures and chords are parodies/interpretations of the original songs. You may use it for private study, scholarship, research or language learning purposes only