» » »

Black Rock Bass tabs (ver.1)

Artists:  A B C D E F G H I J K L M N O P Q R S T U V W X Y Z # 

Black Rock Bass tabs (ver.1)

O.A.R.
Rating:
0/5 (0 votes)

Hard to play? Try these video lessons and learn fast.
                Album:The Wanderer

There are some variations during certain parts of the song but this is pretty much what 
plays.

Intro (After Guitar Entrance)

G----------------------------------4-4---4-7-4-------|
D-----------------0---0-0-0--0-5-5----5--------5-4---|    x2
A---2---2-2-2--2-------------------------------------|
E----------------------------------------------------|


Verse

G----------------------------------4-4---4-7-4-------|
D-----------------0---0-0-0--0-5-5----5--------5-4---|    x3
A---2---2-2-2--2-------------------------------------|
E----------------------------------------------------|


G----------------------------------4-4---------------|
D-----------------0---0-0-0--0-5-5----5----5-5-5-5---|
A---2---2-2-2--2-------------------------------------|
E----------------------------------------------------|


Chorus

G------------------------------------------------|
D-----4-5-7----------------4---------------------|   X4
A---5----------4-7-4-----5--5---------5-2--------|
E------------5--------7------7-----3------3------|


G------------------------------------------------|
D-----4-5-7----------------4---------------------|
A---5----------4-7-4-----5--5--------------------|
E------------5--------7------7-----3-3-3-3-------|


Solo

G------------------------------------------------------|
D-----4-5-7----------------------4---------------------|
A---5-----------7------7-------5--5---------5-2--------|
E------------5---5--5---5---7------7-----3------3------|


G------------------------------------------------------|
D-----4-5-7--------------------4-----4-----------------|
A---5-----------7------7----2---2--2--2-----5-2--------|
E------------5---5--5---5-----------------3-----3------|


G------------------------------------------------|
D-----4-5-7----------------4---------------------|
A---5----------4-7-4-----5--5---------5-2--------|
E------------5--------7------7-----3------3------|


G------------------------------------------------|
D-----4-5-7----------------------4---------------|
A---5-----------7------7-------5--5--------------|
E------------5---5--5---5---7------7----3-3-3-3--|


Intro

G----------------------------------4-4---7-4------4--|
D-----------------0---0-0-0--0-5-5----5-------5-4----|
A---2---2-2-2--2-------------------------------------|
E----------------------------------------------------|


G----------------------------------4-4---4-7-4-------|
D-----------------0---0-0-0--0-5-5----5--------5-4---|
A---2---2-2-2--2-------------------------------------|
E----------------------------------------------------|


G----------------------------------4-4---4-7-4-------|
D-----------------0---0-0-0--0-5-5----5--------5-4---|
A---2---2-2-2--2-------------------------------------|
E----------------------------------------------------|


G----------------------------------4-4---4-7-4-------|
D-----------------0---0-0-0--0-5-5----5--------5-4---|
A---2---2-2-2--2-------------------------------------|
E----------------------------------------------------|


Verse

G----------------------------------4-4---4-7-4-------|
D-----------------0---0-0-0--0-5-5----5--------5-4---|
A---2---2-2-2--2-------------------------------------|
E----------------------------------------------------|


G----------------------------------4-4---7-4----4----|
D-----------------0---0-0-0--0-5-5----5------5---5---|
A---2---2-2-2--2-------------------------------------|
E----------------------------------------------------|


G----------------------------------4-4---7-4----4----|
D-----------------0---0-0-0--0-5-5----5------5---5---|
A---2---2-2-2--2-------------------------------------|
E----------------------------------------------------|


G----------------------------------4-4---------------|
D-----------------0---0-0-0--0-5-5----5----5-5-5-5---|
A---2---2-2-2--2-------------------------------------|
E----------------------------------------------------|


Chorus

G------------------------------------------------|
D-----4-5-7----------------4---------------------|   X4
A---5----------4-7-4-----5--5---------5-2--------|
E------------5--------7------7-----3------3------|


G------------------------------------------------|
D-----4-5-7----------------4---------------------|
A---5----------4-7-4-----5--5--------------------|
E------------5--------7------7-----3-3-3-3-------|


Outro

G----------------------------------4-4---4-7-4-------|
D-----------------0---0-0-0--0-5-5----5--------5-4---|
A---2---2-2-2--2-------------------------------------|
E----------------------------------------------------|


G----------------------------------4-4---7-4----4----|
D-----------------0---0-0-0--0-5-5----5------5---5---|
A---2---2-2-2--2-------------------------------------|
E----------------------------------------------------|


G----------------------------------4-4---7-4---------|
D-----------------0---0-0-0--0-5-5----5------5-4-----|
A---2---2-2-2--2-------------------------------------|
E----------------------------------------------------|


G----------------------------------4-4------------------|
D-----------------0---0-0-0--0-5-5----5----5-5-5-5------|
A---2---2-2-2--2------------------------------------2---|
E-------------------------------------------------------|
            
Hard to play? Try these video lessons and learn fast. | Correct




comments powered by Disqus
↑ Back to top | Tablatures and chords are parodies/interpretations of the original songs. You may use it for private study, scholarship, research or language learning purposes only