» » »

Black Rock Tabs (ver.3)

Artists:  A B C D E F G H I J K L M N O P Q R S T U V W X Y Z # 

Black Rock Tabs (ver.3)

O.A.R.
Rating:
0/5 (0 votes)

Hard to play? Try these video lessons and learn fast.
                O.A.R.
Black Rock

Its different from the other version on this site, and I'm sure it goes with the backups 
better.


Intro and Chorus

D                               A

|-------------12----10---------|------------7p5-5--------|
|-------10---------------------|------5------------------|
|-11-11----11----11----11-11/6-|-6-6-----6---------6/7---|
|------------------------------|-------------------------|
|------------------------------|-------------------------|
|------------------------------|-------------------------|

Bm                  G

|-------10---9-----|-------5p3-3---------|
|---7--------------|---3-----------------|
|-7---7----7---7/4-|-4---4--------4/11---|
|------------------|---------------------|
|------------------|---------------------|
|------------------|---------------------|

Verse:                                       Transition

    Bm     D      G      G                G

|----7-----10-----10----10-------      |--3--3--3--3-------|
|----7-----10-----12----12-------      |--3--3--3--3-------|
|----7-----11-----12----12-------      |--4--4--4--4-------|
|----9-----12-----12----12-------      |--5--5--5--5-------|
|----9-----12-----10----10-------      |--5--5--5--5-------|
|----7-----10-----x-----x--------      |--3--3--3--3-------|

Solo

2:11                         2:15
|---------------------------------------------------------|
|-----------------------------------------7-8/10----------|
|----------------7-7-9-7-7------------7-9-----------------|
|--------7---7-9-----------9-7~---7-9---------------------|
|-5--7/9---9----------------------------------------------|
|---------------------------------------------------------|


2:17
|----------------10/12-10--12-12/14-14/15-14-15-15/17-----|
|-10-10-10/12-10------------------------------------------|
|---------------------------------------------------------|
|---------------------------------------------------------|
|---------------------------------------------------------|
|---------------------------------------------------------|


2:24
|-17-17-17-15-15-14----17-17-15-14----17-17-15-15-14------|
|-------------------17-------------17----------------15---|
|---------------------------------------------------------|
|---------------------------------------------------------|
|---------------------------------------------------------|
|---------------------------------------------------------|


2:29
|-----------------10-----------------------|
|-12b-12b-12b-10-----12-10-----------------|
|--------------------------11-9-7-9-7---7--|
|-------------------------------------9----|
|------------------------------------------|
|------------------------------------------|


                              gradual bend
                                  |
2:32     this part is tricky      |
|---------------------------------|-----------|
|---------------------------------|-----------|
|------7----7-9-7-11-9--12-11-11--9-----------|
|-7h9----9------------------------------------|
|---------------------------------------------|
|---------------------------------------------|

Questions/Comments:

or

OARSA.ORG
            
Hard to play? Try these video lessons and learn fast. | Correct




comments powered by Disqus
↑ Back to top | Tablatures and chords are parodies/interpretations of the original songs. You may use it for private study, scholarship, research or language learning purposes only