» » »

Now Now, Giants Tabs (ver.1)

Artists:  A B C D E F G H I J K L M N O P Q R S T U V W X Y Z # 

Giants Tabs (ver.1)

Now Now Tabs
Rating:
5/5 (4 votes)
Giants lessons Tabs too difficult? Try these video lessons and learn fast
                BAND: Now, Now (Every Children)

~ Someone requested me to post the tabs, so here they are.
~ I'm sure you can figure out the strumming patterns just by listening to the song.
~ I learned the song by ear, although I am aware the tabs are not quite right. 
However, this is my version and it sounds pretty all right to me. :p 

Standard tuning. No capo.
~ = Let ring
/ = Slide
. = Palm mute

Happy playing! :D

INTRO:

|---------------------------|
|-------9-------------9-----|
|----------9~------------9~-|
|-7--9----------7--9--------|
|---------------------------|
|---------------------------|

|---------------------| 
|---------99--9-------|
|---------xx--9-------| 
|-77--99--77--7-------| (3x)
|-00--00--00--0-(10x)-| 
|-00--00--00--0-------| 

                      
|-------------------------|
|---------99--9~--9.------|
|---------xx--9~--9.------|
|-77--99--77--7~--7.------|
|-00--00--00--0~--0.-(6x)-|
|-00--00--00--0~--0.------|

|-------------------------------|
|-------------------------------|
|-------------------------------|
|-7-7-7-7-7/9~--7-7-7-7-9/6~----| (2x)
|-------------------------------|
|-------------------------------|

VERSE 1:

1~If I believed... I would not have done the things you've
2~'Cause you...    to follow the
|---------------------------------|
|-0----------------0--------------|
|-6----------------6--------------|
|-7----------------7--------------|
|-0----------------5--------------|
|-0----------------0--------------|

1~done...
2~sun.             Oh... oh, oh.
|--------------------------------|
|-x----------------x-------------|
|-x----------------x-------------|
|-7----------------7-------------|
|-7----------------7-------------|
|-9----------------7-------------|

PRE-CHORUS 1:

|---------------------------------------|
|---------------5----xx-xx--xx--x.------|
|-66-66--66~------6--xx-xx--xx--x.------|
|-77-77--77~--7------77-77--77--7.------|
|-00-00--55~---------77-77--77--7.-(6x)-|
|-00-00--00~---------99-99--77--7.------|

CHORUS:

1~You take our homes... framework doesn't hold
2~You've been alone...  singing to the sun. 'Cause you
|---------------------------------------|
|-0---------------------0---------------|
|-6---------------------6---------------|
|-7---------------------7---------------|
|-0---------------------5---------------|
|-0---------------------0---------------|

1~against the feet of us giants.
2~know you're on...      home.
|-------------------------------------|
|-x----------------------x------------|
|-x----------------------x------------|
|-7----------------------7------------|
|-7----------------------7------------|
|-9----------------------7------------|

POST-CHORUS 1:

|-------------------|
|-00-00-0--00-00-00-|
|-66-66-6--66-66-66-|
|-77-77-7--77-77-77-|
|-00-00-0--55-55-55-|
|-00-00-0--00-00-00-|

VERSE 2:

1~Like an animal burying its bones, but
2~But if...      different, then
|-------------------------------|
|-0--------------0--------------|
|-6--------------6--------------|
|-7--------------7--------------|
|-0--------------5--------------|
|-0--------------0--------------|

1~leaving...       inside my home.
2~why did we...    this?
|--------------------------------|
|-x----------------x-------------|
|-x----------------x-------------|
|-7----------------7-------------|
|-7----------------7-------------|
|-9----------------7-------------|

CHORUS:

1~You take our homes... framework doesn't hold
2~You've been alone...  singing to the sun. 'Cause you
|---------------------------------------|
|-0---------------------0---------------|
|-6---------------------6---------------|
|-7---------------------7---------------|
|-0---------------------5---------------|
|-0---------------------0---------------|

1~against the feet of us giants.
2~know you're on...      home.
|-------------------------------------|
|-x----------------------x------------|
|-x----------------------x------------|
|-7----------------------7------------|
|-7----------------------7------------|
|-9----------------------7------------|

POST-CHORUS 2:
|---------------------------------------|
|-00-00--00-----5----xx-xx--xx--x.------|
|-66-66--66~------6--xx-xx--xx--x.------|
|-77-77--77~--7------77-77--77--7.------|
|-00-00--55~---------77-77--77--7.-(6x)-|
|-00-00--00~---------99-99--77--7.------|

BRIDGE:

1~You can hide it... want to but,
2~Buried...          knew, but
|----------------------------------|
|----------------------------------|
|-----6-------6----------6-------6-|  --|
|---7---7---7----------7---7---7---|    |
|-0-------0----------5-------5-----|    |
|----------------------------------|    |
                                        |
1~everybody knows... true.              | (2x)
2~they won't...      you.               |
|----------------------------------|    |
|----------------------------------|    |
|----------------------------------|    |
|-----7-------7----------7-------7-|  --|
|---7---7---7----------7---7---7---|
|-9-------9----------7-------7-----|

PRE-CHORUS 2

|---------------------------|
|-------9-------------9-----|
|----------9~------------9~-|
|-7--9----------7--9--------|
|---------------------------|
|---------------------------|

CHORUS:

1~You take our homes... framework doesn't hold
2~You've been alone...  singing to the sun. 'Cause you
|---------------------------------------|
|-0---------------------0---------------|
|-6---------------------6---------------|
|-7---------------------7---------------|
|-0---------------------5---------------|
|-0---------------------0---------------|

1~against the feet of us giants.
2~know you're on...      home.
|-------------------------------------|
|-x----------------------x------------|
|-x----------------------x------------|
|-7----------------------7------------|
|-7----------------------7------------|
|-9----------------------7------------|

POST-CHORUS 3:
1~You can hide it... want to but,
2~Buried...          knew, but
|---------------------------------|
|-0------------------0------------|
|-6------------------6------------|
|-7------------------7------------|
|-0------------------5------------|
|-0------------------0------------|

1~everybody knows... true.
2~they won't...      you.
|--------------------------------|
|--------------------------------|
|-x------------------x-----------|
|-x------------------x-----------|
|-7------------------7-----------|
|-7------------------7-----------|
|-9------------------7-----------|

OUTRO:

|---------------------------------------|
|-00-00-0---00-00-0---xx-xx-x---xx-xx-x-|
|-66-66-6---66-66-6---xx-xx-x---xx-xx-x-|
|-77-77-7---77-77-7---77-77-7---77-77-7-|
|-00-00-0---55-55-5---77-77-7---77-77-7-|
|-00-00-0---00-00-0---99-99-9---77-77-7-|

|---------------------------------------|
|-00-00-0---00-00-0---xx-xx-x---xx-xx-x-|
|-66-66-6---66-66-6---xx-xx-x---xx-xx-x-|
|-77-77-7---77-77-7---77-77-7---77-77-7-|
|-00-00-0---55-55-5---77-77-7---77-77-7-|
|-00-00-0---00-00-0---99-99-9---77-77-7-|

|------------------------|
|-00-00-0---00-00-0---0--|
|-66-66-6---66-66-6---9~-|
|-77-77-7---77-77-7---7~-|
|-00-00-0---55-55-5---5~-|
|-00-00-0---00-00-0---0~-|

LYRICS:
If I believed in God, 
I would not have done 
the things you've done.
'Cause you were only half-willing 
to follow the sun. 
Oh... oh, oh.

You take our homes,
but your framework doesn't hold
against the feet of us giants.
You've been alone.
You're singing to the sun.
'cause you know you're on your on
and you're going home.

Like an animal burying its bones,
but leaving fingerprints on the walls
inside my home.
But if we're so different,
then why did we start this?

You take our homes,
but your framework doesn't hold
against the feet of us giants.
You've been alone.
You're singing to the sun
'cause you know you're on your on
and you're going home.

You can hide it if you want to,
but everybody knows it's true.
Buried everything you knew,
but they won't keep a thing from you.
You can hide it if you want to,
but everybody knows it's true.
Buried everything you knew,
but they won't keep a thing from you.

You take our homes,
but your framework doesn't hold
against the feet of us giants.
You've been alone.
You're singing to the sun
'cause you know you're on your on
and you're going home.

You can hide it if you want to,
but everybody knows it's true.
Buried everything you knew,
but they won't keep a thing from you.
            

comments powered by Disqus
↑ Back to top | Now Now Tabs for Giants. Lyrics for acoustic guitar and electric guitar. Tablatures and chords are parodies/interpretations of the original songs. You may use it for private study, scholarship, research or language learning purposes only