» » »

But I Do Tabs (ver.1)

Artists:  A B C D E F G H I J K L M N O P Q R S T U V W X Y Z # 

But I Do Tabs (ver.1)

Now Now
Rating:
0/5 (0 votes)

Hard to play? Try these video lessons and learn fast.
                -------------------------------------------------------------------------------
-------------------------------------------------------------------------------

Tuning: EAC#EBe

PAY ATTENTION TO THE TUNING AND CAPO POSITION! Cacie play's with her capo on the
fifth fret while Jess doesn't play with one. Most of the song is the same theme
with a few variations on the main riff. If you want a good idea of how they play
it check out their live version at The Impact:


Intro: 

Guitar 1 (Capo on 5th fret)
e |-------------------------------------------------------------------|
B |-------------------------------------------------------------------|
E |-------------------------------------------------------------------|
C#|--------------0---------------0---------------0---------------0----|
A |--------6-------6-------6-------6-------6-------6-------6-------6--|
E |--7-7-7---7-7-----7-7-7---7-7-----7-7-7---7-7-----7-7-7---7-7------|

Guitar 1 (Capo on 5th fret)
e |-------------------------------------------------------------------|
B |-------------------------------------------------------------------|
E |-------------------------------------------------------------------|
C#|--------------0---------------0---------------0---------------0----|
A |--------6-------6-------6-------6-------6-------6-------6-------6--|
E |--7-7-7---7-7-----7-7-7---7-7-----7-7-7---7-7-----4-4-4---4-4------|

Guitar 1 (Capo on 5th fret)
e |-------------------------------------------------------------------|
B |-------------------------------------------------------------------|
E |-------------------------------------------------------------------|
C#|--------------0---------------0---------------0---------------0----|
A |--------6-------6-------6-------6-------6-------6-------6-------6--|
E |--7-7-7---7-7-----7-7-7---7-7-----4-4-4---4-4-----4-4-4---4-4------|

Guitar 1 (Capo on 5th fret)
e |----------------------------------|
B |----------------------------------|
E |----------------------------------|
C#|--------------0---------------0---|
A |--------6-------6-------6-------6-|
E |--7-7-7---7-7-----7-7-7---7-7-----|

Verse:

Guitar 1 (Capo on 5th fret)
e |-------------------------------------------------------------------|
B |-------------------------------------------------------------------|
E |-------------------------------------------------------------------|
C#|--------------0---------------0---------------0---------------0----|
A |--------6-------6-------6-------6-------6-------6-------6-------6--|
E |--7-7-7---7-7-----7-7-7---7-7-----4-4-4---4-4-----4-4-4---4-4------|

Guitar 2 (No Capo, slight PM) 
e |-------------------------------------------------------------------|
B |-------------------------------------------------------------------|
E |-12-12-12-12-12-12-12-12-12-12-12-11-11-11-11-11-11-11-11-11-11-11-|
C#|--x--x--x--x--x--x--x--x--x--x--x--x--x--x--x--x--x--x--x--x--x--x-|
A |-11-11-11-11-11-11-11-11-11-11-11-11-11-11-11-11-11-11-11-11-11-11-|
E |-------------------------------------------------------------------|

Guitar 1 (Capo on 5th fret)
e |-------------------------------------------------------------------|
B |-------------------------------------------------------------------|
E |-------------------------------------------------------------------|
C#|--------------0---------------0---------------0---------------0----|
A |--------6-------6-------6-------6-------6-------6-------6-------6--|
E |--0-0-0---0-0-----0-0-0---0-0-----7-7-7---7-7-----7-7-7---7-7------|

Guitar 2 (No Capo, slight PM) 
e |-------------------------------------------------------------------|
B |-------------------------------------------------------------------|
E |-9-9-9-9-9-9-9-9-9-9-9-9-9-9-9-9-12-12-12-12-12-12-12-12-12-12-12--|
C#|-x-x-x-x-x-x-x-x-x-x-x-x-x-x-x-x--x--x--x--x--x--x--x--x--x--x--x--|
A |-7-7-7-7-7-7-7-7-7-7-7-7-7-7-7-7-11-11-11-11-11-11-11-11-11-11-11--|
E |-------------------------------------------------------------------|

Guitar 1 (Capo on 5th fret)
e |----------------------------------|
B |----------------------------------|
E |----------------------------------|
C#|--------------0---------------0---|
A |--------6-------6-------6-------6-|
E |--7-7-7---7-7-----7-7-7---7-7-----|

Guitar 2 (No Capo, slight PM) 
e |----------------------------------|
B |----------------------------------|
E |-12-12-12-12-12-12-12-12-12-12-12-|
C#|--x--x--x--x--x--x--x--x--x--x--x-|
A |-11-11-11-11-11-11-11-11-11-11-11-|
E |----------------------------------|

Chorus: 

Guitar 1 (Capo on 5th fret)
e |-------------------------------------------------------------------|
B |-------------------------------------------------------------------|
E |-------------------------------------------------------------------|
C#|--------------0---------------0---------------0---------------0----|
A |--------6-------6-------6-------6-------6-------6-------6-------6--|
E |--7-7-7---7-7-----7-7-7---7-7-----4-4-4---4-4-----4-4-4---4-4------|

Guitar 2 (No Capo)
e |-------------------------------------------------------------------|
B |-------------------------------------------------------------------|
E |-12-12-12-12-12-12-12-12-12-12-12-11-11-11-11-11-11-11-11-11-11-11-|
C#|--x--x--x--x--x--x--x--x--x--x--x--x--x--x--x--x--x--x--x--x--x--x-|
A |-11-11-11-11-11-11-11-11-11-11-11-11-11-11-11-11-11-11-11-11-11-11-|
E |-------------------------------------------------------------------|

Guitar 1 (Capo on 5th fret)
e |-------------------------------------------------------------------|
B |-------------------------------------------------------------------|
E |-------------------------------------------------------------------|
C#|--------------0---------------0---------------0---------------0----|
A |--------6-------6-------6-------6-------6-------6-------6-------6--|
E |--0-0-0---0-0-----0-0-0---0-0-----7-7-7---7-7-----7-7-7---7-7------|

Guitar 2 (No Capo)
e |-------------------------------------------------------------------|
B |-------------------------------------------------------------------|
E |-9-9-9-9-9-9-9-9-9-9-9-9-9-9-9-9-7-7-7-7-7-7-7-7-7-7-7-7-7-7-7-7-7-|
C#|-x-x-x-x-x-x-x-x-x-x-x-x-x-x-x-x-x-x-x-x-x-x-x-x-x-x-x-x-x-x-x-x-x-|
A |-7-7-7-7-7-7-7-7-7-7-7-7-7-7-7-7-7-7-7-7-7-7-7-7-7-7-7-7-7-7-7-7-7-|
E |-------------------------------------------------------------------|

Verse 2:

Guitar 1 (Capo on 5th fret)
e |-------------------------------------------------------------------|
B |-------------------------------------------------------------------|
E |-------------------------------------------------------------------|
C#|--------------5-0-------------5-0-------------5-0-------------5-0--|
A |--------6---------------6---------------6---------------6----------|
E |--7-7-7---7-7-----7-7-7---7-7-----0-0-0---0-0-----0-0-0---0-0------|

Guitar 2 (No Capo, slight PM) 
e |-------------------------------------------------------------------|
B |-------------------------------------------------------------------|
E |-------------------------------------------------------------------|
C#|-------------------------------------------------------------------|
A |--7-7-7-7-7-7-7-7-7-7-7-7-7-7-7-7-7-7-7-7-7-7-7-7-7-7-7-7-7-7-7-7--|
E |--0-0-0-0-0-0-0-0-0-0-0-0-0-0-0-0-5-5-5-5-5-5-5-5-5-5-5-5-5-5-5-5--|

Chorus 2: 

Guitar 1 (Capo on 5th fret and the fourth string is optional)
e |-------------------------------------------------------------------| 
B |-------------------------------------------------------------------|
E |-------------------------------------------------------------------|
C#|-------------------------------------------------------------------| 
A |--6-6-6-6-6-6-6-6-6-6-6-6-6-6-6-6-6-6-6-6-6-6-6-6-2-2-2-2-2-2-2-2--|
E |--7-7-7-7-7-7-7-7-7-7-7-7-7-7-7-7-4-4-4-4-4-4-4-4-0-0-0-0-0-0-0-0--|

Guitar 2 (No Capo)
e |-------------------------------------------------------------------| x3
B |-------------------------------------------------------------------|
E |-------------------------------------------------------------------|
C#|--7-7-7-7-7-7-7-7-7-7-7-7-7-7-7-7----------------------------------|
A |--7-7-7-7-7-7-7-7-7-7-7-7-7-7-7-7-7-7-7-7-7-7-7-7-7-7-7-7-7-7-7-7--|
E |--0-0-0-0-0-0-0-0-0-0-0-0-0-0-0-0-9-9-9-9-9-9-9-9-5-5-5-5-5-5-5-5--|

Solo:

Guitar 1 (Capo on 5th fret and the fourth string is optional)
e |-------------------------------------------------------------------| 
B |-------------------------------------------------------------------|
E |-------------------------------------------------------------------|
C#|--------------5-0-------------5-0-------------5-0-5-5-5-5-0-0-0-0--| 
A |--6-6-6-6-6-6-6-6-6-6-6-6-6-6-6-6-6-6-6-6-6-6-6-6-2-2-2-2-2-2-2-2--|
E |--7-7-7-7-7-7-7-7-7-7-7-7-7-7-7-7-4-4-4-4-4-4-4-4-0-0-0-0-0-0-0-0--|

Guitar 2 (No Capo)
e |--0--0--0--0-0-0-0-0-0-0-0-0-0-0-0-0-0-0-0--0--0--0-0-0-0-0-0-0-0-0-0-0-0-0-0-0--|
B |--12-12-12-9-9-9-7-7-4-4-4-4-5-5-5-5-0-0-12-12-12-9-9-9-7-7-4-4-4-4-5-5-5-5-0-0--|
E |---------------------------------------------------------------------------------|
C#|---------------------------------------------------------------------------------|
A |---------------------------------------------------------------------------------|
E |---------------------------------------------------------------------------------|

e |--0--0--0--0--0--0--0--0--0--0--0--0--0-0-0--0--0--0--0--0--0--0--0--0--0--0--0--0--0---|
B |--17-17-17-12-12-12-12-16-16-16-10-10-9-9-17-17-17-12-12-12-12-16-16-16-16-16-16-16-16--|
E |----------------------------------------------------------------------------------------|
C#|----------------------------------------------------------------------------------------|
A |----------------------------------------------------------------------------------------|
E |----------------------------------------------------------------------------------------|

Chorus

Outro:

Guitar 1 (Capo on 5th fret and the fourth string is optional)
e |-------------------------------------------------------------------| x4
B |-------------------------------------------------------------------|
E |-------------------------------------------------------------------|
C#|-------------------------------------------------------------------| 
A |--6-6-6-6-6-6-6-6-6-6-6-6-6-6-6-6-6-6-6-6-6-6-6-6-2-2-2-2-2-2-2-2--|
E |--7-7-7-7-7-7-7-7-7-7-7-7-7-7-7-7-4-4-4-4-4-4-4-4-0-0-0-0-0-0-0-0--|

Guitar 2 (No Capo)
e |--0--0--0--0--0--0--0--0--0--0--0--0--0-0--| x3
B |--17-17-17-12-12-12-12-16-16-16-10-10-9-9--|
E |-------------------------------------------|
C#|-------------------------------------------|
A |-------------------------------------------|
E |-------------------------------------------|

e |-0--0--0--0--0--0--0--0--0--0--0--0--0--0--|
B |-17-17-12-12-12-12-16-16-16-16-16-16-16-16-|
E |-------------------------------------------|
C#|-------------------------------------------|
A |-------------------------------------------|
E |-------------------------------------------|


THE END!
            
Hard to play? Try these video lessons and learn fast. | Correct




comments powered by Disqus
↑ Back to top | Tablatures and chords are parodies/interpretations of the original songs. You may use it for private study, scholarship, research or language learning purposes only