» » »

Nothingface, Hitch Tabs (ver.2)

Artists:  A B C D E F G H I J K L M N O P Q R S T U V W X Y Z # 

Hitch Tabs (ver.2)

Nothingface Tabs
Rating:
0/5 (0 votes)
Hitch lessons Tabs too difficult? Try these video lessons and learn fast
                
Tuning: 1/2 Step Down, Drop D

INTRO: (guitar 1)
|-------------------------|
|-------------------------|
|-------------------------|
|-------------------------|
|-5-5-6-5--5-5-6-6-5-6/11-|
|-------------------------|

INTRO: (guitar 2)
|-----------|
|-----------|
|-----------|
|-1-0---1-0-|
|-1-0---1-0-|
|-1-0---1-0-|

BRIDGE:
|------------------------|
|------------------------|
|------------------------|
|-1-0----------------0-0-|
|-1-0-5-6-6-5-6-6/11-0-0-|
|-1-0----------------0-0-|

VERSE:
|-------------------|
|-------------------|
|-------------------|
|-1-0-0-1-1-0-1-1/6-|
|-1-0-0-1-1-0-1-1/6-|
|-1-0-0-1-1-0-1-1/6-|
PM    . . . . .     

CHORUS:
|------------------------------|
|------------------------------|
|------------------------------|
|-0-3-66-0-3-6-99-0-3-66-6-5-3-|
|-0-3-66-0-3-6-99-0-3-66-6-5-3-|
|-0-3-66-0-3-6-99-0-3-66-6-5-3-|

INTERLUDE:
|--------------------------------------------------------|
|--------------------------------------------------------|
|--------------------------------------------------------|
|--------------------------------------------------------|
|-0-6665553330003005006-6-5/6--0-666555333000-6-0-6-0-33-|
|-0-6665553330003005006--------0-666555333000-6-0-6-0-33-|
PM  ..................           ............

INTERLUDE 2:
|-----------------------------------------------------|
|-----------------------------------------------------|
|-----------------------------------------------------|
|-0-6-55-33-00----------------0-6-55-33-00-6-0-6-0-33-|
|-0-6-55-33-00---------6-5/6--0-6-55-33-00-6-0-6-0-33-|
|-0-6-55-33-00-3005006--------0-6-55-33-00-6-0-6-0-33-|

FILL:
|---|
|---|
|---|
|-0-|
|-0-|
|-0-|

OUTRO:
|------------|
|------------|
|------------|
|-1-0-----|
|-1-0-----|
|-1-0--------|

OUTRO 2:
|-----|
|-----|
|-----|
|-1-0-|
|-1-0-|
|-1-0-|
            
Submit corrections

comments powered by Disqus
↑ Back to top | Nothingface Tabs for Hitch. Lyrics for acoustic guitar and electric guitar. Tablatures and chords are parodies/interpretations of the original songs. You may use it for private study, scholarship, research or language learning purposes only