» » »

Nothingface, Grinning Tabs (ver.2)

Artists:  A B C D E F G H I J K L M N O P Q R S T U V W X Y Z # 

Grinning Tabs (ver.2)

Nothingface Tabs
Rating:
0/5 (0 votes)
Grinning lessons Tabs too difficult? Try these video lessons and learn fast
                Grinning by Nothingface, second track from the album An Audio Guide For Everyday 
Atrocity released in 1998. It's a great song on guitar to unleash your inner rage.
This song is played in Drop C#/Drop Db.
This is my first tab ever written, so don't be hating. Don't forget to rate!

*drumroll*

INTRO RIFF (0:02) 2x
d#|------------------------------------------------------------------------|
a#|------------------------------------------------------------------------|
f#|------------------------------------------------------------------------|
c#|-700700707060060060060603003003003030400400400400-----------------------|
g#|--------------------------------------------------10-10-----------------|
C#|-700700707060060060060603003003003030400400400400-10-10-----------------|

VERSE RIFF (0:24) 4x
d#|------------------------------------------------------------------------|
a#|------------------------------------------------------------------------|
f#|------------------------------------------------------------------------|
c#|------------------------------------------------------------------------|
g#|-6-6-6-0-6-6-6-0-7-7-7-0-7-7-10-10---6-6-6-0-6-6-6-0-7-7-7-4-4-4-7------|
C#|-6-6-6-0-6-6-6-0-7-7-7-0-7-7-10-10---6-6-6-0-6-6-6-0-7-7-7-4-4-4-7------|

HIGH PITCHED SOUND (0:48)
d#|-----15-----------------------------------------------------------------|

Continue the VERSE RIFF 2x, and jump into the CHORUS RIFF.

CHORUS RIFF (1:01) 2x
d#|------------------------------------------------------------------------|
a#|------------------------------------------------------------------------|
f#|-8-8-8-8-8-8-8-11-11-11-11-11-11-11-7-7-7-7-7-7-7-7-6-6-6-6-6-6---------|
c#|------------------------------------------------------------------------|
g#|-6-6-6-6-6-6-6-9--9--9--9--9--9--9--5-5-5-5-5-5-5-5-4-4-4-4-4-4---------|
C#|------------------------------------------------------------------------|

d#|------------------------------------------------------------------------|
a#|------------------------------------------------------------------------|
f#|-8-8-8-8-8-8-8-11-11-11-11-11-11-11-------------------------------------|
c#|------------------------------------------------------------------------|
g#|-6-6-6-6-6-6-6-9--9--9--9--9--9--9---0-7-5------------------------------|
C#|-------------------------------------0-7-5------------------------------|


After this play the VERSE RIFF 2x, and after that play it again 2x with some palm 
muting. (1:24)

Play the CHORUS RIFF 2x as usual, with the bridge in the end; (1:46)

BRIDGE FROM CHORUS TO BREAKDOWN (2:10)
g#|--5------5-5-5-5-5-6-5-3------------------------------------------------|
C#|--5------5-5-5-5-5-6-5-3------------------------------------------------|

BREAKDOWN (2:13) 4x

d#|------------------------------------------------------------------------|
a#|------------------------------------------------------------------------|
f#|------------------------------------------------------------------------|
c#|------------------------------------------------------------------------|
g#|-0-10-0-10-9-0-9-10-6-6-7-6-4-------------------------------------------|
C#|-0-10-0-10-9-0-9-10-6-6-7-6-4-------------------------------------------|

d#|------------------------------------------------------------------------|
a#|------------------------------------------------------------------------|
f#|------------------------------------------------------------------------|
c#|-----------------------7-7-7--------------------------------------------|
g#|-0-10-0-10-9-0-9-10-6--5-5-5--------------------------------------------|
C#|-0-10-0-10-9-0-9-10-6---------------------------------------------------|

Then goes the intro riff, but instead of playing the C# and c# strings, you play C# and 
g# strings. For those who didn't get it, it's like this;

INTRO RIFF EDITED (2:36) 2x
c#|---------------don't touch me!------------------------------------------|
g#|-700700707060060060060603003003003030400400400400-10-10-----------------|
C#|-700700707060060060060603003003003030400400400400-10-10-----------------|

Then goes the VERSE RIFF...play it 4x. (2:58)

And we are done! Hope you liked this tab!
            
Submit corrections

comments powered by Disqus
↑ Back to top | Nothingface Tabs for Grinning. Lyrics for acoustic guitar and electric guitar. Tablatures and chords are parodies/interpretations of the original songs. You may use it for private study, scholarship, research or language learning purposes only