» » »

Alive And Kicking Bass tabs (ver.1)

Artists:  A B C D E F G H I J K L M N O P Q R S T U V W X Y Z # 

Alive And Kicking Bass tabs (ver.1)

Nonpoint
Rating:
5/5 (3 votes)

Hard to play? Try these video lessons and learn fast.
                : =short			\=slide down
R=rest 1 whole beat		r=rest ½ beat	 /=slide up

Intro/Verse 1

Eb: --------------------------------------------------------------|
Bb: -----7----7---7-----8-----8-7----3----3---3-------5----5-3----|
F:  ---5----5--------5------5------5----5-----------3----3--------|6x
C:  -0----0-----0---0-0---0------0----0----0----0-5----0----------|

Pre-chorus

Eb:--------------R-R----------------------------|
Bb:--------------R-R----------------------------|
F: 55:-5:-555:---R-R—55:-5:-553:-3---3----------|  2x
C: --------------R-R-------------------1-2-3----|

Chorus

Eb:----------------------------------------7-7-----------------------------|
Bb:------------------------------7777777-----------------------------------|
F: 555:-5:-55:-5:-55:-55-8-88-888-------5-5---5-5h8-88-8-------------------|
C: -----------------------------------------------------0h5-55-555p3-33333-|

After this, play the pre-chorus backwards, if that makes sense. Just listen to the 
you’ll get it. Then play

Bb:  ----------------------|
Eb:  ----------------------|
F:   5~ -----10~ -----13\--|  into the next verse
C:   ----------------------|

Verse 4x     pre-chorus 2x      chorus 2x

Breakdown
I’m not sure if he does this in a higher octave or not. Just play what you want and see what sounds good

Bb:  R-R-r--------  I---------------------------------------|I
Eb:  R-R-r--------  I---------------------------------------|I
F:   R-R-r--------  I-3-----5-----6---------------I   1-----|2x
C:   R-R-r-1-2-3--  I--0h3h5—-0h3---222-3333----------------|I

Pre-chorus 1x
Aw, hell, I’ll show you the guitar part too, just in case you wanna play it along with your guitarist.

Bb: -------------------------|
Eb: -------------------5-----|
F:  --------------5—5h7-7-5--|
C:  -55:-5:-555:-5-5-------8-|

Chorus 2x
Pre-chorus 2 ½ x listen to the song, you’ll get it
            
Hard to play? Try these video lessons and learn fast. | Correct




comments powered by Disqus
↑ Back to top | Tablatures and chords are parodies/interpretations of the original songs. You may use it for private study, scholarship, research or language learning purposes only