» » »

Turnaround Tabs (ver.2)

Artists:  A B C D E F G H I J K L M N O P Q R S T U V W X Y Z # 

Turnaround Tabs (ver.2)

Nirvana
Rating:
0/5 (0 votes)

Hard to play? Try these video lessons and learn fast.
                Intro:

This is really done by the bass, but you can still do it with the guitar 
and it sounds cool....

|----------------------------------------------|
|----------------------------------------------|
|----------------------------------------------|
|----------------------------------------------|
|----------------------------------------------|
|-0-0-0-0-0-0-0-0-0----------------------------|

	(Just hit the string so it sounds like the bass)

Then Kurt comes in with:

|----------------------------------------------|
|----------------------------------------------|
|--8-9-9-9-9-----------------------------------|
|----------------------------------------------|
|----------------------------------------------|
|----------------------------------------------|

	(bend the 9 up a half step)

Verse:

This is just a combination of the intro bass/guitar parts

Take a step outside yourself...and turnaround.....
|----------------------------------------------|
|----------------------------------------------|
|--------------------8-9-9-9-9-----------------|
|----------------------------------------------|
|----------------------------------------------|
|-0-0-0-0-0-0-0-0-0----------------------------|


Chorus:

So silly....          Revolting...
|--------------------|-------------------------|
|--------------------|-------------------------|
|---7-7-5-5-5--------|---7-7-5-5-5-------------|
|---7-7-5-5-5-7------|---7-7-5-5-5-5-----------|
|---5-5-3-3-3-7------|---5-5-3-3-3-5-----------|
|-------------5------|-------------3-----------|

You're not much...     You can't do anything...
|--------------------|-------------------------|
|--------------------|-------------------------|
|--------------------|-------------7-----------|
|---3-3-5-5-5-7------|---3-3-5-5-5-7-----------|
|---3-3-5-5-5-7------|---3-3-5-5-5-5-----------|
|---1-1-3-3-3-5------|---1-1-3-3-3-------------|

Ugh!!!!!!!!!!
|--------------------|
|--------------------|
|-------------5------|
|---3-3-5-5-5-5------|
|---3-3-5-5-5-3------|
|---1-1-3-3-3--------|
            
Hard to play? Try these video lessons and learn fast. | Correct




comments powered by Disqus
↑ Back to top | Tablatures and chords are parodies/interpretations of the original songs. You may use it for private study, scholarship, research or language learning purposes only