» » »

Tourette's Tabs (ver.3)

Artists:  A B C D E F G H I J K L M N O P Q R S T U V W X Y Z # 

Tourette's Tabs (ver.3)

Nirvana
Rating:
0/5 (0 votes)

Hard to play? Try these video lessons and learn fast.
                Hey all you Nirvana fans. Ive been lookin over alot of the Nirvana tab and
most of the stuff is great and very helpful but as for Tourettes I found a
glitch and decided to fix it.  This is all done in standard tuning and
*REMEMBER* this is my interpretation and this is my first transcription so be
nice. Oh ya, I forgot to mention that Im only 13 but Ive been practicin alot
with my band and by myself and I consider my self to be a pretty accomplished
Enough gab, heres the song. Enjoy!!!!!!!!  :-)

               Verse
e -----------------------------------------------------|
G-----------------------------------------------------|
B-----------------------------------------------------|
D----------------3-3-3-3---4-4-4-4--------------|Repeat with lots of
distortion and plenty of 
A---4-4-4-4---1-1-1-1---2-2-2-2---5-5-5-5-|feedback!!!!!!!
E---2-2-2-2-----------------------------3-3-3-3-|

               Chorus thingy
E---------------------------|                      |------------------
G---------------------------|                      |------------------
B---------------------------|3 times, then.  |------------------
D---------------------------|                      |------------------
A--4-----9p8--8--8h9--|                      |--4----9p8--8\\
E--2-----------------------|                      |--2---------------

h=hammer on
p=pull off
\\=slide down
            
Hard to play? Try these video lessons and learn fast. | Correct




comments powered by Disqus
↑ Back to top | Tablatures and chords are parodies/interpretations of the original songs. You may use it for private study, scholarship, research or language learning purposes only