» » »

Nirvana, Stay Away Tabs (ver.2)

Artists:  A B C D E F G H I J K L M N O P Q R S T U V W X Y Z # 

Stay Away Tabs (ver.2)

Nirvana Tabs
Rating:
0/5 (0 votes)
Stay Away lessons Tabs too difficult? Try these video lessons and learn fast
                INTRO/CHORUS
---------------------------------------    -----------------------------------
---------------------------------------    3--3-------------------------------
---7--7--0--4--4--0-----------5--5--6--    2--2--0--4--4--0---------5--5--5---
---7--7--0--4--4--0--3--3--0--5--5--6-- or 0--0--0--4--4--0--3--3-0-5--5--5---
---5--5--0--2--2--0--3--3--0--3--3--4--    0--0--0--2--2--0--3--3-0-3--3--4---
---------------------1--1--0-----------    ------------------1--1-0-----------

VERSE
----------4/5b--5b--5b-----------4/5b--5b--5b-------4/5b--5b--5b--------

BRIDGE
----7--7--7--7--7--7--7--7----------------------------------------------
----7--7--7--7--7--7--7--7-----4--4--4--4--4--4--4--4-------------------
----5--5--5--5--5--5--5--5-----4--4--4--4--4--4--4--4-------------------
-------------------------------2--2--2--2--2--2--2--2-------------------
            

comments powered by Disqus
↑ Back to top | Nirvana Tabs for Stay Away. Lyrics for acoustic guitar and electric guitar. Tablatures and chords are parodies/interpretations of the original songs. You may use it for private study, scholarship, research or language learning purposes only