>
 >
Smells Like Teen Spirit 2

Smells Like Teen Spirit 2 Guitar Tabs

Nirvana - Smells Like Teen Spirit 2 chords, tabs, tablatures, lyrics

Guitar lessons | Add/correct | Request | Top 50 tabs Artists:  A B C D E F G H I J K L M N O P Q R S T U V W X Y Z 0-9

Smells Like Teen Spirit 2 Guitar Tabs – Nirvana

CD, Sheet music, Poster

Do you like Smells Like Teen Spirit 2? Share with your friends now
ChordsTabsTabs v2Tabs v3Tabs v4
Tuning: Standard

Pls post ur corrections! Thanks.

Intro x2 (Clean)
e--------------------------------------------------------------------------------|
B--------------------------------------------------------------------------------|
G-------------X--X--X--X---3---3---------------------X--X--X--X--6--6------------|
D--3---3--3---X--X--X--X---3---3---0-----6---6--6----X--X--X--X--6--6--0---------|
A--3---3--3---X--X--X--X---1---1---0-----6---6--6----X--X--X--X--4--4--0---------|
E--1---1--1---X--X--X--X-----------0-----4---4--4----X--X--X--X--------0---------|

Chorus x4 (Distortion)
e--------------------------------------------------------------------------------|
B--------------------------------------------------------------------------------|
G-------------X--X--X--X---3---3---------------------X--X--X--X--6--6------------|
D--3---3--3---X--X--X--X---3---3---0-----6---6--6----X--X--X--X--6--6--0---------|
A--3---3--3---X--X--X--X---1---1---0-----6---6--6----X--X--X--X--4--4--0---------|
E--1---1--1---X--X--X--X-----------0-----4---4--4----X--X--X--X--------0---------|

Verse x6
e--------------------------------------------------------------------------------|
B-----6--------------------------------------------------------------------------|
G--5-----------------------------------------------------------------------------|
D--------------------------------------------------------------------------------|
A--------------------------------------------------------------------------------|
E--------------------------------------------------------------------------------|

Pre-Chorus x15
e--------------------------------------------------------------------------------|
B-------6------------------------------------------------------------------------|
G--5-5---------------------------------------------------------------------------|
D--------------------------------------------------------------------------------|
A--------------------------------------------------------------------------------|
E--------------------------------------------------------------------------------|

Play Chorus x6

Post-Chorus x2
e--------------------------------------------------------------------------------|
B--------------------------------------------------------------------------------|
G-------------------3b-----------------------------------------------------------|
D--3--3--3---4--4-------3--3--3---8--8--8--6-------------------------------------|
A--3--3--3---4--4-------3--3--3---8--8--8--6-------------------------------------|
E--1--1--1---2--2-------1--1--1---6--6--6--4-------------------------------------|

Play Verse x6

Play Pre-Chorus x15

Play Chorus x6

Play Post-Chorus x2

Solo x2
e--------------------------------------------------------------------------------
B--------------------------------------------------------------------------------
G-------8---10-------8---8b---6--5---6--5----------------------------------------
D--10------------6--------------------------8---6---8---8b---6--5----------------
A--------------------------------------------------------------------------------
E--------------------------------------------------------------------------------

x3
e--------------------------------------------------------------------------------
B--------------------------------------------------------------------------------
G--------------------------------------------------------------------------------
D--6--5---6--5---65--5b---3-----------------------------------------------------
A--------------------------------------------------------------------------------
E--------------------------------------------------------------------------------

x1
e--------------------------------------------------------------------------------|
B--------------------------------------------------------------------------------|
G--------------------------------------------------------------------------------|
D--6--5---6--5---65--5b---3~~~~~~-----------------------------------------------|
A--------------------------------------------------------------------------------|
E--------------------------------------------------------------------------------|

Rest

Play Chorus x10

End x1
e--------------------------------------------------------------------------------|
B--------------------------------------------------------------------------------|
G--------------------------------------------------------------------------------|
D--3~----------------------------------------------------------------------------|
A--3~----------------------------------------------------------------------------|
E--1~----------------------------------------------------------------------------|





Comments


Popular Nirvana tabs & chords
Polly 3 Chords
Blew Drum Tabs
Lounge Act 1 Drum Tabs
Heart Shaped Box 2 Tabs
I Hate Myself And Want To Die Tabs
Its Closing Soon 1 Tabs
Jesus Doesnt Want Me For A Sunbeam Intro Tabs
Old Age Tabs
Rape Me 6 Tabs
Very Ape Tabs


Song lyrics



↑ Back to top | Tablatures and chords are parodies/interpretations of the original songs. You may use it for private study, scholarship, research or language learning purposes only
© 2014 AZChords.com Contact us | Privacy policy | DMCA | Add/correct tabs | Request tabs | Top 50 tabs