» » »

Nirvana, Smell Like Teen Spirit Tabs (ver.4)

Artists:  A B C D E F G H I J K L M N O P Q R S T U V W X Y Z # 

Smell Like Teen Spirit Tabs (ver.4)

Nirvana Tabs
Rating:
0/5 (0 votes)
Smell Like Teen Spirit lessons Tabs too difficult? Try these video lessons and learn fast
                "(9)
SMELL LIKE TEEN SPIRIT


this is the complitely RIGHT way to play teen spirit


* read very WELL all the notes to understand...because you know...
i'm not that good at explaining




intro:  

(the only thing im not sure about is the name of the chords in the chorus 
BUT I'M COMPLITELY SURE ABOUT THE POSITIONS! )

     

      F                    (Bb)              (Ab)              (Db) 

e --------1------------|--------x----------|-------4----------|-------x--------|
b --------1------------|--------3----------|-------4----------|-------6--------|
g --------2------------|--------3----------|-------5----------|-------6--------|
d --------3------------|--------3----------|-------6----------|-------6--------|
a --------3------------|--------1----------|-------6----------|-------4--------|
E --------1------------|--------x----------|-------4----------|-------x--------|


play this above for the chorus too.



during verses:

e----------------|
b-------6--------|
g--5-------------|   UNTIL THE BRIDGE
d----------------|
a----------------|
E----------------|



bridge (hello how low):

e----------------|
b----6---6---6---|   
g--5---5---5-----|        for all the bridge
d----------------|
a----------------|
E----------------|


here suould be the chorus explained before
  





F - F# - string g with banding

F - F# - Ab - F - F#- string g with banding 



the solo:


e-------------------------------------------------------------|
b-------------------6-----------------------------------------|
g-5-5-8--10------5------6---5--6---5---3-----3---5------------|   X2 BUT AT     
d-----------6---------------------------6------------------6-5|   THE BEGINNING OF THE 2ND TIME  
a-------------------------------------------------------------|   ONLY ONE "5"  
E-------------------------------------------------------------|   

and then

e-----------------------------|
b-----------------------------|
g-----------------------------|
d--6--5--6--5--6--5--6-5*--3--|   until the chorus.
a-----------------------------|    
E-----------------------------|   


the 2ND Part of the song during the verse part have no sound of guitar but just a little remain of the solo



ANY DENIAL part:

F-Bb

--------------------------AND IN F





good grunge and so lovely noisy play :)
"            

comments powered by Disqus
↑ Back to top | Nirvana Tabs for Smell Like Teen Spirit. Lyrics for acoustic guitar and electric guitar. Tablatures and chords are parodies/interpretations of the original songs. You may use it for private study, scholarship, research or language learning purposes only