» » »

Sappy Tabs (ver.1)

Artists:  A B C D E F G H I J K L M N O P Q R S T U V W X Y Z # 

Sappy Tabs (ver.1)

Nirvana
Rating:
0/5 (0 votes)

Hard to play? Try these video lessons and learn fast.
                Questions, complaints?

**This tab is 100% correct, as correct as anyone 
will get it without dieing and meeting kurt himself.
INCLUDING the solo, it occured to me that nobody out 
there can pick out a decent solo on anyhting, so I thought
I'd help you all out. It's also 100% complete(Guitar only), 
almost to the point where it's unessisary. Enjoy and happy 
learning**

-I also feel that the lyrics are correct, which seems to
be rare when it comes to nirvana


-For those of you that don't know tabs, it's simple.
The horrizontal lines are the strings and the 
numbers are the corresponding fret numbers.
-For those of you who aren't too familiar with 
Kurt Cobain's style of playing, when playing power
cords, he tends to end the last strum (The last cord
strum before changing cords) by just lifting his
fingers and struming open strings. Bad habbit I guess... 


<==Play Notes==>
/ - Slide from previous fret to next
p - Pull off from previous fret to next
h - Hammer finger on from previous fret to next
x - Mute string/harmonic
b - small bend, ussually only a half step up at most
B - Larger bend, ussually from a half step to two steps up
^ - Specific bend, bend the fret indicated before the 
    symbol until it produces a tone similar to the fret
    indicated after the symbol.
    Ex. --8^10--, Bend the 8th fret until it sounds like the 10th.
~ - Hold out tone, don't lift fingers

<==TUNING==>
This tab is for normal tuning
[>==========================================================================<]
[--INTRO-------------------------------INTRO------------------INTRO----------]
[>==========================================================================<]
*Start off with a clean instrument, no distortion

"And if you save yourself, you will, make him happy"
E]------------------------------------------
B]------------------------------------------
G]-6-66-666-------------------------4444----
D]-6-66-666-7-77-4444-6-66-666-7-77-4444----
A]-4-44-444-7-77-4444-6-66-666-7-77-2222----
E]----------5-55-2222-4-44-444-5-55---------

[>==========================================================================<]
[----VERSE 1-------------------------VERSE 1----------------VERSE 1----------]
[>==========================================================================<]
*Turn on Distortion

"He'll keep you in a jar, and you'll, think you're happy"
"He'll give you breathin' holes, and you'll think you're happy"
"He'll cover you with grass, and you'll, think you're happy..."
E]------------------------------------------
B]------------------------------------------
G]-6-66-666-------------------------4444----\_x3
D]-6-66-666-7-77-4444-6-66-666-7-77-4444----/
A]-4-44-444-7-77-4444-6-66-666-7-77-2222----
E]----------5-55-2222-4-44-444-5-55---------

[>==========================================================================<]
[--CHORUS 1-----------------------CHORUS 1------------CHORUS 1---------------]
[>==========================================================================<]

"...now. You're in a laundry room, you're in a laundry room, Conclusion came to you"
E]-------------------------------------------------------------------------
B]-------------------------------------------------------------------------
G]-6-66-666----------------------------------------------------------------
D]-6-66-666-7-77-777-4-44-444-7-77-777-4-44-444-7-77-777-4-44-444-7-77-777-
A]-4-44-444-7-77-777-4-44-444-7-77-777-4-44-444-7-77-777-4-44-444-7-77-777-
E]----------5-55-555-2-22-222-5-55-555-2-22-222-5-55-555-2-22-222-5-55-555-

"ooohhhhhhh"
E]------------------------------------------
B]------------------------------------------
G]------------------------------------------
D]-4-44-444--7-77-777-6~~~~~~~~~------------
A]-4-44-444--7-77-777-6~~~~~~~~~------------
E]-2-22-222--5-55-555-4~~~~~~~~~------------

[>==========================================================================<]
[----VERSE 2-------------------------VERSE 2----------------VERSE 2----------]
[>==========================================================================<]
*Turn on Distortion

"And if you cut yourself, you will,think you're happy"
"He'll keep you in a jar, then you'll, make him happy"
"He'll give you breathin' holes, then you'll, think you're happy"
"He'll cover you with grass, then you'll, think you're happy..."
E]------------------------------------------
B]------------------------------------------
G]-6-66-666-------------------------4444----\_x4
D]-6-66-666-7-77-4444-6-66-666-7-77-4444----/
A]-4-44-444-7-77-4444-6-66-666-7-77-2222----
E]----------5-55-2222-4-44-444-5-55---------

[>==========================================================================<]
[--CHORUS 2-----------------------CHORUS 2------------CHORUS 2---------------]
[>==========================================================================<]

"...now. You're in a laundry room, you're in a laundry room, Conclusion came to you"
E]-------------------------------------------------------------------------
B]-------------------------------------------------------------------------
G]-6-66-666----------------------------------------------------------------
D]-6-66-666-7-77-777-4-44-444-7-77-777-4-44-444-7-77-777-4-44-444-7-77-777-
A]-4-44-444-7-77-777-4-44-444-7-77-777-4-44-444-7-77-777-4-44-444-7-77-777-
E]----------5-55-555-2-22-222-5-55-555-2-22-222-5-55-555-2-22-222-5-55-555-

"ooohhhhhhh"
E]------------------------------------------
B]------------------------------------------
G]------------------------------------------
D]-4-44-444--7-77-777-6~~~~~~~~~------------
A]-4-44-444--7-77-777-6~~~~~~~~~------------
E]-2-22-222--5-55-555-4~~~~~~~~~------------

[>==========================================================================<]
[--SOLO----------SOLO-----------------SOLO-----SOLO-----------SOlO-----------]
[>==========================================================================<]

E]----------------------------------------------------------------------
B]------------------------------------------------8B--------------------
G]--------------4-4/6-6-6/8--8-8-8-8B--8-8B-8-6-8-8B-8^10-8^10-8^9-8----
D]-------4-6-x-6--------------------------------------------------------
A]-2/4--6---------------------------------------------------------------
E]----------------------------------------------------------------------

E]-----------------------------------------------------------------------
B]-----------------------------------------------------------------------
G]-----------------------------------------------------------------------
D]-------------------------------------------------------1-2-2-2---------
A]----------------------------------------------1-1/2-2-4----------------
E]-7b-6B-6-4B-4-2-2-2p0-2-2B-2-0-0-1/2-2-2/4-4-4-------------------------

E]----------------------------------------------------------------------------
B]----------------------------------------------------------------------------
G]----------------------9b--11-11-9-11B--11-9---------------------------------
D]------6b-8-8/9-9/11-------------------------11--11-13-13B-13-13-13-11-11-11-
A]-6B-4-----------------------------------------------------------------------
E]----------------------------------------------------------------------------

E]----------------------------------------------------------------------------
B]----------------------------------------------------------------------------
G]----------------------------------------------------------------------------
D]-10/11-11-11-11-11-11-13-13B-14-13-13p14h13-11b-----------------------------
A]----------------------------------------------------------------------------
E]----------------------------------------------------------------------------
"                                                You're in a laundry room"
E]----------------------------------------------------------------------------
B]----------------------------------------------------------------------------
G]--------------------------------------6-66-666------------------------------
D]-11/13-13-13~/11-11/9-9/8-8/6-6/4-4/2-6-66-666-7-77-777-4-44-444------------
A]--------------------------------------4-44-444-7-77-777-4-44-444------------
E]-----------------------------------------------5-55-555-2-22-222------------
"You're in a laundry room, Conclusion came to you, ohhhhhhhhh"
E]------------------------------------------------------------------------
B]------------------------------------------------------------------------
G]------------------------------------------------------------------------
D]-7-77-777-4-44-444-7-77-777-4-44-444-7-77-777-6~~~~~~~~~~~--------------
A]-7-77-777-4-44-444-7-77-777-4-44-444-7-77-777-6~~~~~~~~~~~--------------
E]-5-55-555-2-22-222-5-55-555-2-22-222-5-55-555-4~~~~~~~~~~~--------------

[>==========================================================================<]
[--VERSE 3-----------------------VERSE 3-------------------VERSE 3-----------]
[>==========================================================================<]
*Cut off distortion

"And if you fool yourself, you will, make him happy"
E]------------------------------------------
B]------------------------------------------
G]-6-66-666-------------------------4444----
D]-6-66-666-7-77-4444-6-66-666-7-77-4444----
A]-4-44-444-7-77-4444-6-66-666-7-77-2222----
E]----------5-55-2222-4-44-444-5-55---------


*Turn on Distortion

"He'll keep you in a jar, then you'll, think you're happy"
"He'll give you breathin' holes, then you'll, wish him happy"
"You'll wallow in your ***,then you'll, think you're happy..."
E]------------------------------------------
B]------------------------------------------
G]-6-66-666-------------------------4444----\_x3
D]-6-66-666-7-77-4444-6-66-666-7-77-4444----/
A]-4-44-444-7-77-4444-6-66-666-7-77-2222----
E]----------5-55-2222-4-44-444-5-55---------

[>==========================================================================<]
[--FINAL CHORUS--------------FINAL CHORUS---------------FINAL CHORUS---------]
[>==========================================================================<]
"...now. You're in a laundry room, You're in a laundry room, Conclusion came to you"
E]-------------------------------------------------------------------------
B]-------------------------------------------------------------------------
G]-6-66-666----------------------------------------------------------------
D]-6-66-666-7-77-777-4-44-444-7-77-777-4-44-444-7-77-777-4-44-444-7-77-777-
A]-4-44-444-7-77-777-4-44-444-7-77-777-4-44-444-7-77-777-4-44-444-7-77-777-
E]----------5-55-555-2-22-222-5-55-555-2-22-222-5-55-555-2-22-222-5-55-555-

"ooooohhhhhhhh"
E]------------------------------------------
B]------------------------------------------
G]------------------------------------------
D]-4-44-444--7-77-777-6~~~~~~~~~------------
A]-4-44-444--7-77-777-6~~~~~~~~~------------
E]-2-22-222--5-55-555-4~~~~~~~~~------------
            
Hard to play? Try these video lessons and learn fast. | Correct




comments powered by Disqus
↑ Back to top | Tablatures and chords are parodies/interpretations of the original songs. You may use it for private study, scholarship, research or language learning purposes only