» » »

Return Of The Rat Tabs (ver.1)

Artists:  A B C D E F G H I J K L M N O P Q R S T U V W X Y Z # 

Return Of The Rat Tabs (ver.1)

Nirvana
Rating:
0/5 (0 votes)

Hard to play? Try these video lessons and learn fast.
                Yep, I scewed up the solo.  It's not played on the 2nd and 3rd 
strings but on the 3rd and 4th strings.  Everything else is ok.

e|-------------------------------------------
B|-------------------------------------------
G|--9-7--------7-9-7----9-7--------7-9-7-----  [play twice, I think]
D|------9--7-9-------9------9--7-9-------9---
A|-------------------------------------------
E|-------------------------------------------

e|--------------------------------------------
B|--------------------------------------------
G|--11-9--------9-11-9---11-9--------9-11-9--- [play this twice 
D|-------11-9-11------11-----11-9-11-------11-  then play the 
A|--------------------------------------------  first bit twice
E|--------------------------------------------  more]
            
Hard to play? Try these video lessons and learn fast. | Correct




comments powered by Disqus
↑ Back to top | Tablatures and chords are parodies/interpretations of the original songs. You may use it for private study, scholarship, research or language learning purposes only