» » »

Opinion Tabs (ver.1)

Artists:  A B C D E F G H I J K L M N O P Q R S T U V W X Y Z # 

Opinion Tabs (ver.1)

Nirvana
Rating:
0/5 (0 votes)

Hard to play? Try these video lessons and learn fast.
                This is a rareity so i dont expect many people will know
but i do so here it is

--------------------------------------------|---------------------------------
--------------------------------------------|---------------------------------
-44------77---------------------------------|---------------------------------
-44-555--77-444-----------------------------|---------------------------------
-22-555--55-444-----------------------------|---------------------------------
----333-----222-----------------------------|---------------------------------
 Repeat all the way through PM during verse                                   

-----------------------|------------------------------------------------------
------------3h55-3h55--|-------------3h5p3-3h5-3h555555666--------------------
--3h444--3h444---------|------3h4p3-------------------------------------------
-----------------------|------------------------------------------------------
-----------------------|------------------------------------------------------
-----------------------|------------------------------------------------------
    Here is the solo      1st part twice then this
            
Hard to play? Try these video lessons and learn fast. | Correct




comments powered by Disqus
↑ Back to top | Tablatures and chords are parodies/interpretations of the original songs. You may use it for private study, scholarship, research or language learning purposes only