» » »

Nirvana, More Than A Feeling Tabs (ver.1)

Artists:  A B C D E F G H I J K L M N O P Q R S T U V W X Y Z # 

More Than A Feeling Tabs (ver.1)

Nirvana Tabs
 Rating:
4/5 (4 votes)
More Than A Feeling lessons Tabs too difficult? Try these video lessons and learn fast
                It's only a 50-second jam from Live at Reading.

I think it's the way Kurt played it.

Begining
e|-------------------------------x-x-x-x-----x-x-x-x-------|
b|-------------------------------x-x-x-x-----x-x-x-x-------|
g|--------------------------2--2-x-x-x-x-6-6-x-x-x-x-4-4-0-|
d|-----------7--7----2--2---2--2-x-x-x-x-6-6-x-x-x-x-4-4-0-|
a|-----------7--7----2--2---0--0-x-x-x-x-4-4-x-x-x-x-2-2-0-|
e|0--0-6p5---5--5----0--0--------x-x-x-x-----x-x-x-x-------|


e|--------------------------------|
b|--------------------------------|
g|------x-x-2-2-x-x-6-6-x-x-4-4-0-|
d|--2-2-x-x-2-2-x-x-6-6-x-x-4-4-0-|        x6
a|--2-2-x-x-0-0-x-x-4-4-x-x-2-2-0-|
e|--0-0-x-x-----x-x-----x-x-------|

and then end of jam + intro to Smells Like Teen Spirit
e|------------------------------------------------------------|
b|------------------------------------------------------------|
g|------x-x-2-2--6~~--4~~--------------3-3-|-0------------6-6-|
d|--2-2-x-x-2-2--6~~--4~~--3--3-3-xxxx-3-3-|-06--6-6-xxxx-6-6-|
a|--2-2-x-x-0-0--4~~--2~~--3--3-3-xxxx-1-1-|-06--6-6-xxxx-4-4-|
e|--0-0-x-x----------------1--1-1-xxxx-----|--4--4-4-xxxx-----|
            
Submit corrections

comments powered by Disqus
↑ Back to top | Nirvana Tabs for More Than A Feeling. Lyrics for acoustic guitar and electric guitar. Tablatures and chords are parodies/interpretations of the original songs. You may use it for private study, scholarship, research or language learning purposes only