» » »

Milk It Bass tabs (ver.2)

Artists:  A B C D E F G H I J K L M N O P Q R S T U V W X Y Z # 

Milk It Bass tabs (ver.2)

Nirvana
Rating:
0/5 (0 votes)

Hard to play? Try these video lessons and learn fast.
                Milk It
Nirvana
Comment, rate, yeah.


Part 1
Gb---------------------------------------------------|
Db---------------------------------------------------|
Ab---------------------------------------------------|
Eb-6-6-6-0-0-3-3-0-3-3-3-4-4-0-0-0-6-6-6-0-0-3-3-0-3-|


Part 2
Gb---------------------------------------------------|
Db---------------------------------------------------|
Ab-------7-7-7---------------------------7-7---------|
Eb-6-6-6-------3-3-0-3-3-4-4-0-0-0-6-6-6-----3-3-0-3-|


Part 3
Gb---------------------------------|
Db---------------------------------|
Ab---------------------------------|
Eb-6-6-6-0-0-3-3-0-3-3-3-4-4-0-0-0-|


Part 4
Gb---------------------------------|
Db---------------------------------|
Ab-------7-7-7-7-------------------|
Eb-6-6-6---------0-3-3-3-4-0-0-0-0-|


Order:
Part 1 x2
Part 2 x3
Part 3 x8
Part 2 x3
Part 4 x4
Part 3 x6
Part 2 x3
Part 4 x4
Part 3 x8
Part 2 x3
Part 4 x8
            
Hard to play? Try these video lessons and learn fast. | Correct




comments powered by Disqus
↑ Back to top | Tablatures and chords are parodies/interpretations of the original songs. You may use it for private study, scholarship, research or language learning purposes only