>
 >
Marigold

Marigold Guitar Tabs

Nirvana - Marigold chords, tabs, tablatures, lyrics

Guitar lessons | Add/correct | Request | Top 50 tabs Artists:  A B C D E F G H I J K L M N O P Q R S T U V W X Y Z 0-9

Marigold Guitar Tabs – Nirvana

CD, Sheet music, Poster

Do you like Marigold? Share with your friends now
Bass TabsBass Tabs v2ChordsTabsTabs v2Tabs v3Ukulele
"Marigold" by Nirvana

This song is pretty easy to play but it is a really good song. Do 
not play the full chords I have written below play them like Kurt
always used to play his chords bits and peices of each chord are 
played at a time in this song it's usually the highest three notes.
Or you can follow the tab.

Although I have the tab for the song below I would like to know who
wrote it. Was it Novaselic who came up with the base riff for the song
or did Cobain come up with the base riff for it. Also I saw someone 
asking for the bass tab to it a long while back. I'm no bassist but 
I took the root notes from the chords and it seems to do the job fine.

Once again, I highly suggest finding you're own picking rythem for this
song. It is slow but I still may have not tabbed it correctley.

####Marigold####

Verse

Gtr 1. clean
   D           B                A           F
|-------2------------------------------------------------------------------|
|-------3-----------4-----------------2------------1-----------------------|
|-----------------------4-------------2------------2----2------------------|
|--0--------------------4-------------2-----------------3------------------|
|--------------2----------------0-------------3----------------------------|
|--------------------------------------------------------------------------|

Bass 1. Clean (this is also intro riff)

|--------------------------------------------------------------------------|
|--------------------------------------------------------------------------|
|---5-----------2-------2--------0-----0---1-------------------------------|
|----------------------------------------------1----1----1-----------------|
**I still don't gaurantee the bassline is right someone repost it please.

Chorus
He might use single picking on such parts as the F but I couldn't really
tell on my unclear tape.

 F                               G                             D
-1--1----1--1----1--1----1--1----3--3----3--3----3--3----3--3-----2---2--2-|
-1--1----1--1----1--1----1--1----3--3----3--3----3--3----3--3-----3---3--3-|
-2--2----2--2----2--2----2--2----4--4----4--4----4--4----4--4-----2---2--2-|
-3--3----3--3----3--3----3--3----5--5----5--5----5--5----5--5--0-----------|
-3--3----3--3----3--3----3--3----5--5----5--5----5--5----5--5--------------|
-1--1----1--1----1--1----1--1----3--3----3--3----3--3----3--3--------------|

|--------------------------------------------------------------------------|
|--------------------------------------------------------------------------|
|--------------------------------------------------------------5--5---5--5-|
|1--1----1--1----1--1----1--1----3--3----3--3----3--3----3--3--------------|



  B                   F
|---------------------1---1----1----1----1---1---1----1--------------------|
|--------(4)--(4)-----1---1----1----1----1---1---1----1--------------------|
|------4--4----4------2---2----2----2----2---2---2----2--------------------|
|------4--4----4------3---3----3----3----3---3---3----3--------------------|
|--2------2----2------3---3----3----3----3---3---3----3--------------------|
|---------------------1---1----1----1----1---1---1----1--------------------|

|--------------------------------------------------------------------------|
|--------------------------------------------------------------------------|
|--2---2--2----2-----------------------------------------------------------|
|---------------------1---1----1----1----1---1---1----1--------------------|

Now for the lyrics:

Verses:
He's there in case I want it.
He's scared cause I won.
He's there in case I want it all.
He's scared cause I won.

Chorus:
On the wall the clock is slow. (or "all in all the clock is slow")
Six color(ed) pictures (all) in a row.
Of a marigold.


--------------------------------------------
Golden BBS         BBS: 603-886-4563                  
Nashua, NH				  Voice/Fax: 603-886-9660    
--------------------------------------------





Comments


Popular Nirvana tabs & chords
About A Girl 2 Bass Tabs
Aero Zeppelin Bass Tabs
Bambi Slaughter (Intro) Tabs
Blew 1 Tabs
Cocaine Girl Tabs
D7 1 Tabs
Drain You Live Tabs
Here She Comes Now 1 Tabs
Horrified 2 Tabs
Verse Chorus Verse 2 Tabs


Song lyrics



↑ Back to top | Tablatures and chords are parodies/interpretations of the original songs. You may use it for private study, scholarship, research or language learning purposes only
© 2014 AZChords.com Contact us | Privacy policy | DMCA | Add/correct tabs | Request tabs | Top 50 tabs