» » »

Nirvana, Marigold Bass tabs (ver.1)

Artists:  A B C D E F G H I J K L M N O P Q R S T U V W X Y Z # 

Marigold Bass tabs (ver.1)

Nirvana Tabs
Rating:
0/5 (0 votes)
Hard to play? Try these video lessons and learn fast.
                #------------------------------------------------------------------------------##

Bass tab for "Marigold" written by Dave Grohl performed by Nirvana


/=slide up

(tune down 1/2 step)

Intro/Verse
Gb|----------------------------------------------------------------|
Db|----------------------------------------------------------------|
Ab|-7-7---4---4-4-3-2-2-2-3---2-----7-7---4---4-4-3-2-2-2-3---3-3/-|
Eb|-----------------------------3-0--------------------------------|
Repeat

Chorus
Gb|------------------------------------------------------------------------------------------------|
Db|------------------------------------------------------------------------------------------------|
Ab|---------------------------------7-7-7-7-7-7-7-6-4-4-4-4-4-4-4-0-3-3-3-3-3-3-3-3-3-3-3-3-3-3-3/-|
Eb|-3-3-3-3-3-3-3-4-5-5-5-5-5-4-3-0----------------------------------------------------------------|
Return to Verse

That's it for the bass.  It's a beautiful sounding song and the bassline 
really supplements that beauty.  If you have any questions, comments, 


Guitar tab for "Marigold" written by Dave Grohl performed by Nirvana


(tune down 1/2)

verse
Eb|-0-----0-----------0-----0-----------|
Bb|-0-----0-----------0-----0-----------|
Gb|-9-----6-----------4-----5-----------|
Db|-9-----6-----------4-----5-----------|
Ab|-7-----4-----------2-----3-----------|
Eb|-------------------------------------|

chorus
Eb|-0---------------0---------------0---------------0---------------|
Bb|-0---------------0---------------0---------------0---------------|
Gb|-7---------------6---------------9---------------6---------------|
Db|-7---------------6---------------9---------------6---------------|
Ab|-5---------------4---------------7---------------4---------------|
Eb|-----------------------------------------------------------------|

Please note that these are only the chord fingerings and you will have to 
find the rhythm yourself.  If you have any questions, comments, suggestions, 



Here's what I think the btab for Marigold by Nirvana is:
G------------------------
D-0-0--------------------
A-----2--2-2-1-0-0--1-0--
E----------------------1-0

I haven't worked on the chorus, but I think Patrick Christman (the person 
who posted the tab)  was correct with following the guitar: F G D B F.  
Oh, well, so sue me if I'm wrong, Mike Farmer 
            

comments powered by Disqus
↑ Back to top | Nirvana Bass for Marigold. Lyrics for acoustic guitar and electric guitar. Tablatures and chords are parodies/interpretations of the original songs. You may use it for private study, scholarship, research or language learning purposes only