» » »

Man Who Sold The World Chords (ver.2)

Artists:  A B C D E F G H I J K L M N O P Q R S T U V W X Y Z # 

Man Who Sold The World Chords (ver.2)

Nirvana
Rating:
0/5 (0 votes)

Hard to play? Try these video lessons and learn fast.
                (Unplugged)
Man Who Sold The World



A7    x02020
Dm    xx0231
F     xx3211
C     x32010
A     x02220
Bbm   xx3321

Tune down ½ a step.


Intro (6x)

E --------------------------
B --------------------------
G --2-2-2-0--2/3\2-0-----------2  Hold this note as you finish off the intro. 
D --------------------------
A --------------------------
E --------------------------


                          A7                             Dm
We passed along the stair.____   We spoke of was and when,

                        A7                               F
Although I wasn't there.____   He said I was his friend,  

                            C                      A
Which came as some surprise.___  I spoke into his eyes

                      Dm                               C
I  thought you died alone, ____ a long, long time ago.____

         C               Bbm
Oh, no, not me,______ I never lost control.____

            C                        Bbm                 (A)
You're face____to face____  with the man who sold the world.



Scale played along with chorus (4x)

E----------------------------------------------------------------------------
B----------------------------------------------------------------------------
G-----------------2--3--5--------------------------------------------------
D--------2--3--5---------------------------0--2--3-----------------------
A--3--5---------------------------0--1--3---------------------------------
E---------------------------1--3--------------------------------------------
            
Hard to play? Try these video lessons and learn fast. | Correct




comments powered by Disqus
↑ Back to top | Tablatures and chords are parodies/interpretations of the original songs. You may use it for private study, scholarship, research or language learning purposes only