» » »

Nirvana, Laminated Effect Bass tabs (ver.2)

Artists:  A B C D E F G H I J K L M N O P Q R S T U V W X Y Z # 

Laminated Effect Bass tabs (ver.2)

Nirvana Tabs
Rating:
0/5 (0 votes)
Laminated Effect lessons Tabs too difficult? Try these video lessons and learn fast
                "Laminated Effect"

I got this off a live version of the song.
This is from the REAL song, not the fecal matter tape.
If you think any of this is incorrect submit yours.
Listen to the song carefully to get the timing right.



                                                 (verse)
g|----------------------
d|----------------------
a|---------------5-8-7-7 (sometimes the 8 is a 7)
e|-0-0-0-4-5-6-7--------

                                                (chorus)
g|-----------------------------------------------
d|------------------------------------------------
a|-7-7-7-5-7---------------7-7-7-5-7--5-4-4/-2-2-2
e|------------7-7-7-5-7---------------------------

                                                (ending)
g|------------------
d|------------------
a|---------------5-7
e|-0-0-0-4-5-6-7----

verse 12x
chorus 2x
verse 4x
chorus 2x
verse 8x
open E (with beat)
chorus 2x
verse 3x
ending



I got this off the fecal matter tape(which is a fake).
If you think any of this is incorrect submit yours.
Listen to the song carefully to get the timing right.
Play this line over and over again.



g|--------------------
d|--------------------
a|-----------------4-4
e|-0-0-0-2-3-3-0------
            

comments powered by Disqus
↑ Back to top | Nirvana Bass for Laminated Effect. Lyrics for acoustic guitar and electric guitar. Tablatures and chords are parodies/interpretations of the original songs. You may use it for private study, scholarship, research or language learning purposes only