» » »

Junkyard Tabs (ver.1)

Artists:  A B C D E F G H I J K L M N O P Q R S T U V W X Y Z # 

Junkyard Tabs (ver.1)

Nirvana
Rating:
0/5 (0 votes)

Hard to play? Try these video lessons and learn fast.
                  corrections (see below) from CHRISTOPHER S RINEWALT .
  He pointed out things that I should have gotten (especially the verse riff)
  Sorry for the misinformation, I feel I possibly screwed up because I was
  in a hurry; however, I still admit I screwed up. The article Chris sent me
  is edited to shorten the file size.  Thank you Chris for the corrections.

[snip]
 
 ********
 Title: Junkyard by Nirvana
 CD Title: Unhappy
 ********
 
 
   distorted electric through out song
   slightly fast tempo
   *1 *1                   E5     vvv      vv v      vvv      vv
 e --|--|-----------------|---0--------0-----|---0--------0-----|
 B --|--|-----------------|-0---0----0---0---|-0---0----0---0---|
 G --|--|-----------------|------------------|------------------|
 D --|--|-----------------|2------222------22|2------222------22|
 A --|--|------------2/10~|2------222------22|2------222------22|
 E --|--|-----------------|0------000------00|0------000------00|
   drums play a bar then 
   with the bass 2 more


ok, for the verse you have the first 2 parts right, the E5 then the open 
bottom strings, but after this, where you have the "vvv" try playing an 
open g-chord 3 times quick then switching back to an E5 real quick, its 
kinda hard to hear on guitar, but if you listen to the bass you can hear 
it better, if you have enough distortion, and the high end turned up dso 
you can hear the open strings, its sounds just like it

[snip]
 
                                                          G5
                                                end solo  v^
 e |r7-3.5.7.7\5\3-----|-----------------|-----------2-0~---|
 B |---------------0-33|533--------------|050-0-55p40-0-----|
 G |-------------------|----1------------|------------------|
 D |-------------------|-----2---------0-|----------------44|
 A |-------------------|------212--2-22--|----------------44|
 E |-------------------|---------0--0----|----------------22|
                                                          Onl

for the solo, try begining on the A-string 6/7 fret then 6 fret D-string, 
playing it on te lower strings gives it more bottom end, at least for 
that part, the rest i dont know where he goes

   LYRICS (the best I can make of them)
 
   I'm not gon-na make you drool
   You may sigh,  sigh your fill
   I'm not gon-na make you dream
   You may side,  side with me
   I'm not gon-na make you drool
   You may sigh,  sigh your fill
   I'm not gon-na make you dream
   You may side,  side with them
 
   Only they don't got      these are way off, sorry, i know the chorus goes
   Only they don't got      "born in a junkyard", thats how they got the y they don't got
   Only they don't got       name junkyard
   Only they don't got
   Only they don't got
   Only they don't got
   Only they don't
   got

-- 
            
Hard to play? Try these video lessons and learn fast. | Correct




comments powered by Disqus
↑ Back to top | Tablatures and chords are parodies/interpretations of the original songs. You may use it for private study, scholarship, research or language learning purposes only