» » »

Nirvana, I Hate Myself Tabs (ver.1)

Artists:  A B C D E F G H I J K L M N O P Q R S T U V W X Y Z # 

I Hate Myself Tabs (ver.1)

Nirvana Tabs
 Rating:
4/5 (4 votes)
I Hate Myself lessons Tabs too difficult? Try these video lessons and learn fast
1
                Nirvana's "I Hate Myself And I Want To Die"

As heard on The Beavis & Butthead Experience


Kurdt tunes his guitar dropped-D (drop the D string two frets)

It is not that hard to play once you get the hang of it! Its mainly just
simple Barr chords (some modified a bit)

The lyrics were unintelligable, so I tried my best. If you perform this in
concert, and get laughed at because you sang the wrong lyrics, its not my
fault!

Thanks some to the aiden of grunge!

The |s represent barlines, and the /s represent slides.



--------------------------------------
-5-5-4-4------------------------------
-5-5-4-4-3-2--------------------------
-5-5-4-4-3-2--------------------------
-3-3-2-2-3-2--------------------------
-3-3-2-2-1-0--------------------------


(Verse 1)
Runnin doesn't bother you
Yell out if youi have a cold still
You can cough on me again
I still haven't had my fare-fill

(Verse 2) REAL SCREWED UP!
??
The plaster disaster is hard still  (?)
just another cooky blue-jay fraze (?)
?? to tie you over (?)


CHORUS.

   1&2&3&4&

-3-3--1--------------------------------
-3-3--1--------------------------------
-4-4--2--------------------------------
-5-5--3--------------------------------
-5-5--3--------------------------------
-3-3--1--------------------------------

I really couldn't figure this out, one of these, maybe

In a sinewave, whats this high-sound

In the side wave, whats this hard sound

Every Sunday, whats that hard sound

Suicidal, to this hard sound


SOLO.

--------|--------|--------|--------|--------|--------|--------|
--------|--------|--------|--------|--------|--------|--------|
--------|--0-----|--------|--------|--------|--------|--------|
--------|0---4-3-|2-------|--------|--3202--|--------|--------|
----2-3-|--------|--------|--------|--------|1-0-----|--------|
-/5-----|--------|--------|--------|--------|----5-3-|2-------|


Thats all i figure out...
            
Submit corrections

comments powered by Disqus
↑ Back to top | Nirvana Tabs for I Hate Myself. Lyrics for acoustic guitar and electric guitar. 1 Tablatures and chords are parodies/interpretations of the original songs. You may use it for private study, scholarship, research or language learning purposes only