>
 >
Half The Man I Used To Be

Half The Man I Used To Be Bass Tabs

Nirvana - Half The Man I Used To Be chords, tabs, tablatures, lyrics

Guitar lessons | Add/correct | Request | Top 50 tabs Artists:  A B C D E F G H I J K L M N O P Q R S T U V W X Y Z 0-9

Half The Man I Used To Be Bass Tabs – Nirvana

CD, Sheet music, Poster

Do you like Half The Man I Used To Be? Share with your friends now
Bass TabsBass Tabs v2ChordsUkulele
Nirvana
Bass Tab
Half The Man I Used To Be
Hope Its Right
or at least Close enough

Intro 0:00
G----------------------------------------------------------|
D----------------------------------------------------------|
A-----------------------57---------------------------------|
E--8-8-8x77-7-0-0-0x00-7----0-0-0x00-030-8-8-8p7-77-7-0----|

Verse 0:22
G------------------------    G------------------------|
D------------------------    D------------------------|
A------------------------x4  A-----------57-----------|
E-0-0-0x00-0-78-8x77-7-0-    E-0-0-0x00-7----0-0-0x00-|

Pre-Chorus 1:07
G----------------------------   G-------------------------------|
D----------------------------   D-------------------------------|
A----------------------------x2 A-------------------------------|
E-3-3-3-55-5-55-0-0-0x00-0000   E-3-3-3-55-5-55/8-8-8x1010-1010-|

Chorus 1:33
G-----------------------------|
D-----------------------------|
A------------57---------------|X4
E-0-02-23-357---0-02-23-3/567-|

Before Verse 2:10
G---------------------------------|
D---------------------------------|
A-----------57-----------765------|
E-0-0-0X00-7---0-00-0X00----98787-|

Verse 2:19
G------------------------    G------------------------|
D------------------------    D------------------------|
A------------------------x4  A-----------57-----------|
E-0-0-0x00-0-78-8x77-7-0-    E-0-0-0x00-7----0-0-0x00-|

Pre-Chorus 3:02
G----------------------------   G-------------------------------|
D----------------------------   D-------------------------------|
A----------------------------x2 A-------------------------------|
E-3-3-3-55-5-55-0-0-0x00-0000   E-3-3-3-55-5-55/8-8-8x1010-1010-|

Chorus 3:29
G-----------------------------|
D-----------------------------|
A------------57---------------|X4
E-0-02-23-357---0-02-23-3/567-|

Interlude 4:05
G------|
D------|
A------|X4
E--0---|

Pre-Chorus 4:22
G-----------------------------  G------------------------------|
D-----------------------------  D------------------------------|
A------------------------5----  A------------------------------|
E-3-3-3-55-5-55-0-0-0-057-7530  E-3-3-3-55-5-55-0-0-0X00-0000--|

G---------------------------------|
D---------------------------------|
A--------------------------1110---|Those are 10's and 11.
E-3-3-3-55-5-55/8-78-78-710----10-|

Chorus 4:48
G-----------------------------|
D-----------------------------|
A------------57---------------|X4
E-0-02-23-357---0-02-23-3/567-|


Please Rate hope you like it
Hope Its Right Or At least close
the timing of the whole song i guess is subjective
just do it at the drums and guitar rhytm and the fills
hope they're right these is as closest as i could do it
post any comments to help tabbing this awesome song





Comments


Popular Nirvana tabs & chords
Dumb 4 Bass Tabs
Come As You Are 1 Chords
In Bloom 2 Chords
Lake Of Fire 1 Chords
On A Plain 1 Chords
Breed Tabs
Floyd The Barber Tabs
On A Plain 2 Tabs
Sifting 1 Tabs
Skool Tabs


Song lyrics



↑ Back to top | Tablatures and chords are parodies/interpretations of the original songs. You may use it for private study, scholarship, research or language learning purposes only
© 2014 AZChords.com Contact us | Privacy policy | DMCA | Add/correct tabs | Request tabs | Top 50 tabs