» » »

Grey Goose Tabs (ver.3)

Artists:  A B C D E F G H I J K L M N O P Q R S T U V W X Y Z # 

Grey Goose Tabs (ver.3)

Nirvana
Rating:
0/5 (0 votes)

Hard to play? Try these video lessons and learn fast.
                grey goose by nirvana

with the lights out (boxed set)
--------------------------------------



e|----------------------------------------------------------------|
B|----------------------------------------------------------------|
G|------------------1-2-----------------------------1-2-----------|
D|--0-1-2~~~~~~~~~2-----------------0-1-2~~~~~~~~~2---------------|
A|2---------------------2~~~~~~~~~2---------------------2~~~~~~~~~|
E|----------------------------------------------------------------|

then later on kurt adds...

e|----------------------------------------------------------------|
B|----------------------------------------------------------------|
G|------------------1-2-----7-420-------------------1-2-----7-420-|
D|--0-1-2~~~~~~~~~2--------------22~0-1-2~~~~~~~~~2--------------2|
A|2---------------------2~~~~~~~~~2---------------------2~~~~~~~~~|
E|----------------------------------------------------------------|
            
Hard to play? Try these video lessons and learn fast. | Correct




comments powered by Disqus
↑ Back to top | Tablatures and chords are parodies/interpretations of the original songs. You may use it for private study, scholarship, research or language learning purposes only