» » »

Nirvana, Frances Farmer Will Have Her Revenge On Seattle Bass tabs (ver.2)

Artists:  A B C D E F G H I J K L M N O P Q R S T U V W X Y Z # 

Frances Farmer Will Have Her Revenge On Seattle Bass tabs (ver.2)

Nirvana Tabs
Rating:
0/5 (0 votes)
Frances Farmer Will Have Her Revenge On Seattle lessons Tabs too difficult? Try these video lessons and learn fast
                "Frances Farmer Will Have Her Revenge On Seattle Tab by Nirvana
Tuning: Drop D

[/]: Slide


INTRO (GUITAR ONLY):
e|-----------------|----------------|----------------|
b|-----------------|----------------|----------------|
g|-----------------|----------------|----------------|
d|-5-5-5-5-5-5-5-5/|1-1-1-1-4-4-4-4/|1-1-1-1-4-4-4-4-| } [x2]
a|-5-5-5-5-5-5-5-5/|1-1-1-1-4-4-4-4/|1-1-1-1-4-4-4-4-|
d|-5-5-5-5-5-5-5-5/|1-1-1-1-4-4-4-4/|1-1-1-1-4-4-4-4-|
   ...............................................

END INTRO (WITH BASS):
g|-----------------|-----------------|
d|-----------------|-----------------|
a|-1---1---1-1-1---|-1-1---1---------|
d|-----------------|-----------1-3-4-|
   1   2   3 & 4     1 & 2 & 3 & 4 &


VERSE 1:
g|-----------------|----------------|----------------|
d|-----------------|----------------|----------------|
a|-----------------|----------------|----------------|
d|-5-5-5-5-5-5-5-5/|1-1-1-1-4-4-4-4/|1-1-1-1-4-4-4-4-| }
                                                       } [x2]
g|-----------------|-----------------|                 }
d|-----------------|-----------------|
a|-1---1---1-1-1---|-1---1---1-------|
d|---------------3-|---3---3---1-3-4-|
   1   2   3 & 4 &   1 & 2 & 3 & 4 &

g|-----------------|----------------|----------------|
d|-----------------|----------------|----------------|
a|-----------------|----------------|----------------|
d|-5-5-5-5-5-5-5-5/|1-1-1-1-4-4-4-4/|1-1-1-1-4-4-4-4-|

g|-----------------|-----------------|                 
d|-----------------|-----------------|
a|-1---1---1-1-1---|-1-1-1-1-1---1-2-|
d|---------------3-|-----------3-----|
   1   2   3 & 4 &   1 & 2 & 3 & 4 &


CHORUS:
g|-----------------|----------------|-----------------|-----------------|
d|-----------------|----------------|-----------------|-----------------|[x2]
a|-3-3-3-3-3-3-3-3/|6-6-6-6-4-4-4---|-1---1---1-1-1---|-1-1-1-1-1---1-2-|
d|-----------------|--------------3-|---------------3-|-----------3-----|
                                      1   2   3 & 4 &   1 & 2 & 3 & 4 &

g|-----------------|----------------|-----------------|
d|-----------------|----------------|-----------------|
a|-3-3-3-3-3-3-3-3/|6-6-6-6-4-4-4---|-----------------|
d|-----------------|--------------3-|-8-8-8-8-8-8-8-7-|

g|-----------------|-----------------|-----------------|-----------------|
d|-----------------|-----------------|-----------------|-----------------|
a|-----------------|-----------------|-----------------|-----------------|
d|-6-6-6-6-6-6-6-7-|-8-8-8-8-8-8-8-7-|-6-6-6-6-6-6-6-3-|-4-4-4-4-4-4-4-4-|

g|-----------------|
d|-----------------|
a|-----------------|
d|-3-3-3-3-3-3-3-4-|


VERSE 2:
g|-----------------|----------------|----------------|
d|-----------------|----------------|----------------|
a|-----------------|----------------|----------------|
d|-5-5-5-5-5-5-5-5/|1-1-1-1-4-4-4-4/|1-1-1-1-4-4-4-4-| }
                                                       } [x2]
g|-----------------|-----------------|                 }
d|-----------------|-----------------|
a|-1---1---1-1-1---|-1---1---1-------|
d|---------------3-|---3---3---1-3-4-|
   1   2   3 & 4 &   1 & 2 & 3 & 4 &

g|-----------------|----------------|----------------|
d|-----------------|----------------|----------------|
a|-----------------|----------------|----------------|
d|-5-5-5-5-5-5-5-5/|1-1-1-1-4-4-4-4/|1-1-1-1-4-4-4-4-|

g|-----------------|-----------------|                 
d|-----------------|-----------------|
a|-1---1---1-1-1---|-1-1-1-1-1---1-2-|
d|---------------3-|-----------3-----|
   1   2   3 & 4 &   1 & 2 & 3 & 4 &


CHORUS:
g|-----------------|----------------|-----------------|-----------------|
d|-----------------|----------------|-----------------|-----------------|[x2]
a|-3-3-3-3-3-3-3-3/|6-6-6-6-4-4-4---|-1---1---1-1-1---|-1-1-1-1-1---1-2-|
d|-----------------|--------------3-|---------------3-|-----------3-----|
                                      1   2   3 & 4 &   1 & 2 & 3 & 4 &

g|-----------------|----------------|-----------------|
d|-----------------|----------------|-----------------|
a|-3-3-3-3-3-3-3-3/|6-6-6-6-4-4-4---|-----------------|
d|-----------------|--------------3-|-8-8-8-8-8-8-8-7-|

g|-----------------|-----------------|-----------------|-----------------|
d|-----------------|-----------------|-----------------|-----------------|
a|-----------------|-----------------|-----------------|-----------------|
d|-6-6-6-6-6-6-6-7-|-8-8-8-8-8-8-8-7-|-6-6-6-6-6-6-6-3-|-4-4-4-4-4-4-4-4-|

g|-----------------|
d|-----------------|
a|-----------------|
d|-3-3-3-3---------|


INTERLUDE:
g|---------------|---------------|---------------|-------------------------|
d|---------------|---------------|---------------|-------------------------|
a|---------------|---------------|---------------|-------------------------|
d|-5-5-5/1—--1-4-|-5-5-5/1—--1-4-|-5-5-5/1---1/8-|-10-10-10-10-10-10-10-10-|
   1 & 2 & 3 & 4                   1 & 2 & 3 & 4

g|-----------------------|      
d|-----------------------|[x3]  
a|-----------------------|      
d|-10-11-11-11-11-10-8-6-|      
                                                        
g|-----------------|-----------------|-----------------|-----------------|
d|-----------------|-----------------|-----------------|-----------------|
a|-----------------|-----------------|-----------------|-----------------|
d|-8-8-8-8-8-8-8-7-|-6-6-6-6-6-6-6-3-|-4-4-4-4-4-4-4-4-|-3-3-3-3-3-3-3-4-|


VERSE 3:
g|-----------------|----------------|----------------|
d|-----------------|----------------|----------------|
a|-----------------|----------------|----------------|
d|-5-5-5-5-5-5-5-5/|1-1-1-1-4-4-4-4/|1-1-1-1-4-4-4-4-| }
                                                       } [x2]
g|-----------------|-----------------|                 }
d|-----------------|-----------------|
a|-1---1---1-1-1---|-1---1---1-------|
d|---------------3-|---3---3---1-3-4-|
   1   2   3 & 4 &   1 & 2 & 3 & 4 &

g|-----------------|----------------|----------------|
d|-----------------|----------------|----------------|
a|-----------------|----------------|----------------|
d|-5-5-5-5-5-5-5-5/|1-1-1-1-4-4-4-4/|1-1-1-1-4-4-4-4-|

g|-----------------|-----------------|                 
d|-----------------|-----------------|
a|-1---1---1-1-1---|-1-1-1-1-1---1-2-|
d|---------------3-|-----------3-----|
   1   2   3 & 4 &   1 & 2 & 3 & 4 &


CHORUS/OUTRO:
g|-----------------|----------------|-----------------|-----------------|
d|-----------------|----------------|-----------------|-----------------|[x2]
a|-3-3-3-3-3-3-3-3/|6-6-6-6-4-4-4---|-1---1---1-1-1---|-1-1-1-1-1---1-2-|
d|-----------------|--------------3-|---------------3-|-----------3-----|
                                      1   2   3 & 4 &   1 & 2 & 3 & 4 &

g|-----------------|----------------|-----------------|
d|-----------------|----------------|-----------------|
a|-3-3-3-3-3-3-3-3/|6-6-6-6-4-4-4---|-----------------|
d|-----------------|--------------3-|-8-8-8-8-8-8-8-7-|

g|-----------------|-----------------|-----------------|-----------------|
d|-----------------|-----------------|-----------------|-----------------|
a|-----------------|-----------------|-----------------|-----------------|
d|-6-6-6-6-6-6-6-7-|-8-8-8-8-8-8-8-7-|-6-6-6-6-6-6-6-3-|-4-4-4-4-4-4-4-4-|

g|-----------------|-----------------|
d|-----------------|-5\--------------|
a|-----------------|-5\--------------|
d|-3-3-3-3-3-3-3-4-|-5\--------------|
   ...............
"            
Submit corrections

comments powered by Disqus
↑ Back to top | Nirvana Bass for Frances Farmer Will Have Her Revenge On Seattle. Lyrics for acoustic guitar and electric guitar. Tablatures and chords are parodies/interpretations of the original songs. You may use it for private study, scholarship, research or language learning purposes only