>
 >
Frances Farmer Will Have Her Revenge On Seattle

Frances Farmer Will Have Her Revenge On Seattle Bass Tabs

Nirvana - Frances Farmer Will Have Her Revenge On Seattle chords, tabs, tablatures, lyrics

Guitar lessons | Add/correct | Request | Top 50 tabs Artists:  A B C D E F G H I J K L M N O P Q R S T U V W X Y Z 0-9

Frances Farmer Will Have Her Revenge On Seattle Bass Tabs – Nirvana

CD, Sheet music, Poster

Do you like Frances Farmer Will Have Her Revenge On Seattle? Share with your friends now
Bass TabsBass Tabs v2ChordsTabsTabs v2Tabs v3Tabs v4
Frances Farmer Will Have Her Revenge On Seattle Tab by Nirvana
Tuning: Drop D

[/]: Slide


INTRO (GUITAR ONLY):
e|-----------------|----------------|----------------|
b|-----------------|----------------|----------------|
g|-----------------|----------------|----------------|
d|-5-5-5-5-5-5-5-5/|1-1-1-1-4-4-4-4/|1-1-1-1-4-4-4-4-| } [x2]
a|-5-5-5-5-5-5-5-5/|1-1-1-1-4-4-4-4/|1-1-1-1-4-4-4-4-|
d|-5-5-5-5-5-5-5-5/|1-1-1-1-4-4-4-4/|1-1-1-1-4-4-4-4-|
   ...............................................

END INTRO (WITH BASS):
g|-----------------|-----------------|
d|-----------------|-----------------|
a|-1---1---1-1-1---|-1-1---1---------|
d|-----------------|-----------1-3-4-|
   1   2   3 & 4     1 & 2 & 3 & 4 &


VERSE 1:
g|-----------------|----------------|----------------|
d|-----------------|----------------|----------------|
a|-----------------|----------------|----------------|
d|-5-5-5-5-5-5-5-5/|1-1-1-1-4-4-4-4/|1-1-1-1-4-4-4-4-| }
                                                       } [x2]
g|-----------------|-----------------|                 }
d|-----------------|-----------------|
a|-1---1---1-1-1---|-1---1---1-------|
d|---------------3-|---3---3---1-3-4-|
   1   2   3 & 4 &   1 & 2 & 3 & 4 &

g|-----------------|----------------|----------------|
d|-----------------|----------------|----------------|
a|-----------------|----------------|----------------|
d|-5-5-5-5-5-5-5-5/|1-1-1-1-4-4-4-4/|1-1-1-1-4-4-4-4-|

g|-----------------|-----------------|                 
d|-----------------|-----------------|
a|-1---1---1-1-1---|-1-1-1-1-1---1-2-|
d|---------------3-|-----------3-----|
   1   2   3 & 4 &   1 & 2 & 3 & 4 &


CHORUS:
g|-----------------|----------------|-----------------|-----------------|
d|-----------------|----------------|-----------------|-----------------|[x2]
a|-3-3-3-3-3-3-3-3/|6-6-6-6-4-4-4---|-1---1---1-1-1---|-1-1-1-1-1---1-2-|
d|-----------------|--------------3-|---------------3-|-----------3-----|
                                      1   2   3 & 4 &   1 & 2 & 3 & 4 &

g|-----------------|----------------|-----------------|
d|-----------------|----------------|-----------------|
a|-3-3-3-3-3-3-3-3/|6-6-6-6-4-4-4---|-----------------|
d|-----------------|--------------3-|-8-8-8-8-8-8-8-7-|

g|-----------------|-----------------|-----------------|-----------------|
d|-----------------|-----------------|-----------------|-----------------|
a|-----------------|-----------------|-----------------|-----------------|
d|-6-6-6-6-6-6-6-7-|-8-8-8-8-8-8-8-7-|-6-6-6-6-6-6-6-3-|-4-4-4-4-4-4-4-4-|

g|-----------------|
d|-----------------|
a|-----------------|
d|-3-3-3-3-3-3-3-4-|


VERSE 2:
g|-----------------|----------------|----------------|
d|-----------------|----------------|----------------|
a|-----------------|----------------|----------------|
d|-5-5-5-5-5-5-5-5/|1-1-1-1-4-4-4-4/|1-1-1-1-4-4-4-4-| }
                                                       } [x2]
g|-----------------|-----------------|                 }
d|-----------------|-----------------|
a|-1---1---1-1-1---|-1---1---1-------|
d|---------------3-|---3---3---1-3-4-|
   1   2   3 & 4 &   1 & 2 & 3 & 4 &

g|-----------------|----------------|----------------|
d|-----------------|----------------|----------------|
a|-----------------|----------------|----------------|
d|-5-5-5-5-5-5-5-5/|1-1-1-1-4-4-4-4/|1-1-1-1-4-4-4-4-|

g|-----------------|-----------------|                 
d|-----------------|-----------------|
a|-1---1---1-1-1---|-1-1-1-1-1---1-2-|
d|---------------3-|-----------3-----|
   1   2   3 & 4 &   1 & 2 & 3 & 4 &


CHORUS:
g|-----------------|----------------|-----------------|-----------------|
d|-----------------|----------------|-----------------|-----------------|[x2]
a|-3-3-3-3-3-3-3-3/|6-6-6-6-4-4-4---|-1---1---1-1-1---|-1-1-1-1-1---1-2-|
d|-----------------|--------------3-|---------------3-|-----------3-----|
                                      1   2   3 & 4 &   1 & 2 & 3 & 4 &

g|-----------------|----------------|-----------------|
d|-----------------|----------------|-----------------|
a|-3-3-3-3-3-3-3-3/|6-6-6-6-4-4-4---|-----------------|
d|-----------------|--------------3-|-8-8-8-8-8-8-8-7-|

g|-----------------|-----------------|-----------------|-----------------|
d|-----------------|-----------------|-----------------|-----------------|
a|-----------------|-----------------|-----------------|-----------------|
d|-6-6-6-6-6-6-6-7-|-8-8-8-8-8-8-8-7-|-6-6-6-6-6-6-6-3-|-4-4-4-4-4-4-4-4-|

g|-----------------|
d|-----------------|
a|-----------------|
d|-3-3-3-3---------|


INTERLUDE:
g|---------------|---------------|---------------|-------------------------|
d|---------------|---------------|---------------|-------------------------|
a|---------------|---------------|---------------|-------------------------|
d|-5-5-5/1--1-4-|-5-5-5/1--1-4-|-5-5-5/1---1/8-|-10-10-10-10-10-10-10-10-|
   1 & 2 & 3 & 4                   1 & 2 & 3 & 4

g|-----------------------|      
d|-----------------------|[x3]  
a|-----------------------|      
d|-10-11-11-11-11-10-8-6-|      
                                                        
g|-----------------|-----------------|-----------------|-----------------|
d|-----------------|-----------------|-----------------|-----------------|
a|-----------------|-----------------|-----------------|-----------------|
d|-8-8-8-8-8-8-8-7-|-6-6-6-6-6-6-6-3-|-4-4-4-4-4-4-4-4-|-3-3-3-3-3-3-3-4-|


VERSE 3:
g|-----------------|----------------|----------------|
d|-----------------|----------------|----------------|
a|-----------------|----------------|----------------|
d|-5-5-5-5-5-5-5-5/|1-1-1-1-4-4-4-4/|1-1-1-1-4-4-4-4-| }
                                                       } [x2]
g|-----------------|-----------------|                 }
d|-----------------|-----------------|
a|-1---1---1-1-1---|-1---1---1-------|
d|---------------3-|---3---3---1-3-4-|
   1   2   3 & 4 &   1 & 2 & 3 & 4 &

g|-----------------|----------------|----------------|
d|-----------------|----------------|----------------|
a|-----------------|----------------|----------------|
d|-5-5-5-5-5-5-5-5/|1-1-1-1-4-4-4-4/|1-1-1-1-4-4-4-4-|

g|-----------------|-----------------|                 
d|-----------------|-----------------|
a|-1---1---1-1-1---|-1-1-1-1-1---1-2-|
d|---------------3-|-----------3-----|
   1   2   3 & 4 &   1 & 2 & 3 & 4 &


CHORUS/OUTRO:
g|-----------------|----------------|-----------------|-----------------|
d|-----------------|----------------|-----------------|-----------------|[x2]
a|-3-3-3-3-3-3-3-3/|6-6-6-6-4-4-4---|-1---1---1-1-1---|-1-1-1-1-1---1-2-|
d|-----------------|--------------3-|---------------3-|-----------3-----|
                                      1   2   3 & 4 &   1 & 2 & 3 & 4 &

g|-----------------|----------------|-----------------|
d|-----------------|----------------|-----------------|
a|-3-3-3-3-3-3-3-3/|6-6-6-6-4-4-4---|-----------------|
d|-----------------|--------------3-|-8-8-8-8-8-8-8-7-|

g|-----------------|-----------------|-----------------|-----------------|
d|-----------------|-----------------|-----------------|-----------------|
a|-----------------|-----------------|-----------------|-----------------|
d|-6-6-6-6-6-6-6-7-|-8-8-8-8-8-8-8-7-|-6-6-6-6-6-6-6-3-|-4-4-4-4-4-4-4-4-|

g|-----------------|-----------------|
d|-----------------|-5\--------------|
a|-----------------|-5\--------------|
d|-3-3-3-3-3-3-3-4-|-5\--------------|
   ...............





Comments


Popular Nirvana tabs & chords
Heart Shaped Box 6 Bass Tabs
All Apologies Chords
All Nirvana Songs Tabs
Big Cheese Tabs
Clean Up Before She Comes 2 Tabs
Gallons Of Rubbing Alcohol Flow Through The Strip Tabs
Plateau Unplugged Tabs
Turnaround 1 Tabs
Come As You Are Ukulele
Lithium Ukulele


Song lyrics



↑ Back to top | Tablatures and chords are parodies/interpretations of the original songs. You may use it for private study, scholarship, research or language learning purposes only
© 2014 AZChords.com Contact us | Privacy policy | DMCA | Add/correct tabs | Request tabs | Top 50 tabs