» » »

Nirvana, Floyd The Barber Tabs (ver.6)

Artists:  A B C D E F G H I J K L M N O P Q R S T U V W X Y Z # 

Floyd The Barber Tabs (ver.6)

Nirvana Tabs
 Rating:
4/5 (4 votes)
Floyd The Barber lessons Tabs too difficult? Try these video lessons and learn fast
1
                FLOYD THE BARBER
As recorded by Nirvana


   Intro
    Moderate Rock Q=132
    F5      E5        F5      E5        F5      E5        F5         Em
   4/4
    Gtr I
||------------------|-----------------|-----------------|-------------------||
||o-----------------|-----------------|-----------------|-------------0----o||
||------------------|-----------------|-----------------|-------------0-----||
||--/3--/3----------|-/3--/3----------|-/3--/3----------|-/3--/3-(3)--2-----||
||o-/3--/3--2-2-2-x-|-/3--/3--2-2-2-x-|-/3--/3--2-2-2-x-|-/3--/3-(3)-------o||
||--/1--/1--0-0-0-x-|-/1--/1--0-0-0-x-|-/1--/1--0-0-0-x-|-/1--/1-(1)-/0-----||


 Verse
  $
  F5      E5        F5      E5        F5      E5        F5         Em
|-----------------|-----------------|-----------------|------------------|
|-----------------|-----------------|-----------------|-------------0----|
|-----------------|-----------------|-----------------|-------------0----|
|-/3--/3----------|-/3--/3----------|-/3--/3----------|-/3--/3-(3)--2----|
|-/3--/3--2-2-2-x-|-/3--/3--2-2-2-x-|-/3--/3--2-2-2-x-|-/3--/3-(3)-------|
|-/1--/1--0-0-0-x-|-/1--/1--0-0-0-x-|-/1--/1--0-0-0-x-|-/1--/1-(1)-/0----|


  F5      E5        F5      E5        F5      E5        F5         Em
|-----------------|-----------------|-----------------|------------------|
|-----------------|-----------------|-----------------|-------------0----|
|-----------------|-----------------|-----------------|-------------0----|
|-/3--/3----------|-/3--/3----------|-/3--/3----------|-/3--/3-(3)--2----|
|-/3--/3--2-2-2-x-|-/3--/3--2-2-2-x-|-/3--/3--2-2-2-x-|-/3--/3-(3)-------|
|-/1--/1--0-0-0-x-|-/1--/1--0-0-0-x-|-/1--/1--0-0-0-x-|-/1--/1-(1)-/0----|


 Chorus
  C#    A5   C       Ab5             C#    A5   C       Ab5
|----------------|-----------------|----------------|-----------------|
|-6-6-x------5-5-|-x---------------|-6-6-x------5-5-|-x---------------|
|-6-6-x------5-5-|-x---------------|-6-6-x------5-5-|-x---------------|
|-6-6-x-7-7--5-5-|-x-6-6--(6)--6---|-6-6-x-7-7--5-5-|-x-6-6--(6)--6---|
|-4-4-x-7-7--3-3-|-x-6-6--(6)--6---|-4-4-x-7-7--3-3-|-x-6-6--(6)--6---|
|-------5-5------|---4-4--(4)--4-0-|-------5-5------|---4-4--(4)--4-0-|


                                                             To Coda
  C#    A5   C       Ab5             C#    A5   C       Ab5
|----------------|-----------------|----------------|-----------------|
|-6-6-x------5-5-|-x---------------|-6-6-x------5-5-|-x---------------|
|-6-6-x------5-5-|-x---------------|-6-6-x------5-5-|-x---------------|
|-6-6-x-7-7--5-5-|-x-6-6--(6)--6---|-6-6-x-7-7--5-5-|-x-6-6--(6)--6---|
|-4-4-x-7-7--3-3-|-x-6-6--(6)--6---|-4-4-x-7-7--3-3-|-x-6-6--(6)--6---|
|-------5-5------|---4-4--(4)--4-0-|-------5-5------|---4-4--(4)--4-0-|


  F5      E5        F5      E5        F5      E5        F5         Em
|-----------------|-----------------|-----------------|------------------|
|-----------------|-----------------|-----------------|-------------0----|
|-----------------|-----------------|-----------------|-------------0----|
|-/3--/3----------|-/3--/3----------|-/3--/3----------|-/3--/3-(3)--2----|
|-/3--/3--2-2-2-x-|-/3--/3--2-2-2-x-|-/3--/3--2-2-2-x-|-/3--/3-(3)-------|
|-/1--/1--0-0-0-x-|-/1--/1--0-0-0-x-|-/1--/1--0-0-0-x-|-/1--/1-(1)-/0----|


 Verse
  F5      E5        F5      E5        F5      E5        F5         Em
|-----------------|-----------------|-----------------|------------------|
|-----------------|-----------------|-----------------|-------------0----|
|-----------------|-----------------|-----------------|-------------0----|
|-/3--/3----------|-/3--/3----------|-/3--/3----------|-/3--/3-(3)--2----|
|-/3--/3--2-2-2-x-|-/3--/3--2-2-2-x-|-/3--/3--2-2-2-x-|-/3--/3-(3)-------|
|-/1--/1--0-0-0-x-|-/1--/1--0-0-0-x-|-/1--/1--0-0-0-x-|-/1--/1-(1)-/0----|


  F5      E5        F5      E5        F5      E5        F5         Em
|-----------------|-----------------|-----------------|------------------|
|-----------------|-----------------|-----------------|-------------0----|
|-----------------|-----------------|-----------------|-------------0----|
|-/3--/3----------|-/3--/3----------|-/3--/3----------|-/3--/3-(3)--2----|
|-/3--/3--2-2-2-x-|-/3--/3--2-2-2-x-|-/3--/3--2-2-2-x-|-/3--/3-(3)-------|
|-/1--/1--0-0-0-x-|-/1--/1--0-0-0-x-|-/1--/1--0-0-0-x-|-/1--/1-(1)-/0----|


 Chorus
  C#    A5   C       Ab5             C#    A5   C       Ab5
|----------------|-----------------|----------------|-----------------|
|-6-6-x------5-5-|-x---------------|-6-6-x------5-5-|-x---------------|
|-6-6-x------5-5-|-x---------------|-6-6-x------5-5-|-x---------------|
|-6-6-x-7-7--5-5-|-x-6-6--(6)--6---|-6-6-x-7-7--5-5-|-x-6-6--(6)--6---|
|-4-4-x-7-7--3-3-|-x-6-6--(6)--6---|-4-4-x-7-7--3-3-|-x-6-6--(6)--6---|
|-------5-5------|---4-4--(4)--4-0-|-------5-5------|---4-4--(4)--4-0-|


  C#    A5   C       Ab5             C#    A5   C       Ab5
|----------------|-----------------|----------------|-----------------|
|-6-6-x------5-5-|-x---------------|-6-6-x------5-5-|-x---------------|
|-6-6-x------5-5-|-x---------------|-6-6-x------5-5-|-x---------------|
|-6-6-x-7-7--5-5-|-x-6-6--(6)--6---|-6-6-x-7-7--5-5-|-x-6-6--(6)--6---|
|-4-4-x-7-7--3-3-|-x-6-6--(6)--6---|-4-4-x-7-7--3-3-|-x-6-6--(6)--6---|
|-------5-5------|---4-4--(4)--4-0-|-------5-5------|---4-4--(4)--4-0-|


 Guitar Solo
                  ~                  ~                       ~~~~~~
|---------------|------------------|----------------|--------------------|
|---------------|------------------|----------------|--------------------|
|---------------|------------------|----------------|--------------------|
|-3--3--3-------|------------------|----------------|--------------------|
|-3--3--3-0-1-3-|-3--3-1-(1)-0-1-3-|--------------1-|-1h3--3-1-(1)-0-1-3-|
|-1--1--1-------|------------------|-1--1-0-1-3-0---|--------------------|


                          ~~~~~~
|----------------|--------------------|----------------|------------------|
|----------------|--------------------|----------------|------------------|
|----------------|--------------------|----------------|------------------|
|----------------|--------------------|----------------|------------------|
|------------0-1-|-1h3--3-1-(1)-0-1-3-|----------------|-3s5-5s6-6s7-8\---|
|-1--1-0-1-3-----|--------------------|-1--1-0-1-3-3s5-|----------------0-|


                                                            D.S. al Coda
  F5      E5        F5      E5        F5      E5        F5         Em
          PM--|             PM--|             PM--|
|-----------------|-----------------|-----------------|------------------|
|-----------------|-----------------|-----------------|-------------0----|
|-----------------|-----------------|-----------------|-------------0----|
|-/3--/3----------|-/3--/3----------|-/3--/3----------|-/3--/3-(3)--2----|
|-/3--/3--2-2-2-x-|-/3--/3--2-2-2-x-|-/3--/3--2-2-2-x-|-/3--/3-(3)-------|
|-/1--/1--0-0-0-x-|-/1--/1--0-0-0-x-|-/1--/1--0-0-0-x-|-/1--/1-(1)-/0----|


  &
  F5      E5
|-----------------|-----*|
|-----------------|-----*|
|-----------------|-----*|
|-/3--/3----------|-----*|
|-/3--/3--2-2-2-x-|-----*|
|-/1--/1--0-0-0-x-|-----*|
            
Submit corrections

comments powered by Disqus
↑ Back to top | Nirvana Tabs for Floyd The Barber. Lyrics for acoustic guitar and electric guitar. 1 Tablatures and chords are parodies/interpretations of the original songs. You may use it for private study, scholarship, research or language learning purposes only