» » »

Floyd The Barber Bass tabs (ver.5)

Artists:  A B C D E F G H I J K L M N O P Q R S T U V W X Y Z # 

Floyd The Barber Bass tabs (ver.5)

Nirvana
Rating:
0/5 (0 votes)

Hard to play? Try these video lessons and learn fast.
                Floyd The Barber
Bleach
Nirvana



All the other tabs have this song in standard tuning which after listening to the song a few times
it doesn't sound right at all.  I'm pretty sure this is how its played.

   0:00             0:05          x15
Gb:---------------||-----------------||
Db:---------------||-----------------||
Ab:---------------||-----------------||
Eb:--R--R--R--R---||--0h1-0h1-X-X-X--||


   0:32            x4
Gb:------------------||
Db:------------------||
Ab:-4-4-----3-3------||
Eb:-----5-5-----4-4--||


   0:46          x12
Gb:-----------------||
Db:-----------------||
Ab:-----------------||
Eb:--0h1-0h1-X-X-X--||


   1:07            x4
Gb:------------------||
Db:------------------||
Ab:-4-4-----3-3------||
Eb:-----5-5-----4-4--||


   1:21                         x4    If you want to play the variation
Gb:---------------||--------------||------------------|| with the guitar
Db:---------------||--------------||---2---3-2-5-3/---|| here it is. Play it
Ab:-----------0-1-||-3-3-1-0-0-3--||-3---5------------|| on the 4th repeat.
Eb:-1-1-0-1-3-----||--------------||------------------||


   1:34          x12
Gb:-----------------||
Db:-----------------||
Ab:-----------------||
Eb:--0h1-0h1-X-X-X--||


   1:56            x4
Gb:------------------||
Db:------------------||
Ab:-4-4-----3-3------||
Eb:-----5-5-----4-4--||


   2:09           x2
Gb:-----------------||
Db:-----------------||
Ab:-----------------||
Eb:--0h1-0h1-X-X-X--||
            
Hard to play? Try these video lessons and learn fast. | Correct




comments powered by Disqus
↑ Back to top | Tablatures and chords are parodies/interpretations of the original songs. You may use it for private study, scholarship, research or language learning purposes only