» » »

Floyd The Barber Tabs (ver.1)

Artists:  A B C D E F G H I J K L M N O P Q R S T U V W X Y Z # 

Floyd The Barber Tabs (ver.1)

Nirvana
Rating:
0/5 (0 votes)

Hard to play? Try these video lessons and learn fast.
                NIRVANA

Written by - Kurt Cobain
Band -  Nirvana

Floyd The Barber
Tune Down 1/2 a step
 intro/verse
e----------------------------------------------------------------       
b----------------------------------------------------------------
g----------------------------------------------------------------      
d--3--3--2-2-2-----3--3--2-2-2----3--3--2-2-2----3--3--2-2-2-----
a--3--3--2-2-2-----3--3--2-2-2----3--3--2-2-2----3--3--2-2-2-----
e--1--1--0-0-0-----1--1--0-0-0----1--1--0-0-0----1--1--0-0-0-----
         PM---           PM---          PM---      

e----------------------------------------------------------------- 
b-----------------------------------------------------------------       
g-----------------------------------------------------------------        
d--3--3--2-2-2-----3--3--2-2-2----3--3--2-2-2----3--3--2-2-2------
a--3--3--2-2-2-----3--3--2-2-2----3--3--2-2-2----3--3--2-2-2------
e--1--1--0-0-0-----1--1--0-0-0----1--1--0-0-0----1--1--0-0-0------
         PM---           PM---          PM---     

play that twice 
 chorus
e-----------------------------------------------------------------
b-----------------------------------------------------------------
g--6--6--------5--5-------------6--6--------5--5------------------
d--6--6--7--7--5--5--6--6-------6--6--7--7--5--5--6--6------------
a--4--4--7--7--3--3--6--6-------4--4--7--7--3--3--6--6------------
e--------5--5--------4--4-------------5--5--------4--4------------

e-----------------------------------------------------------------
b-----------------------------------------------------------------
g--6--6--------5--5-------------6--6--------5--5------------------
d--6--6--7--7--5--5--6--6-------6--6--7--7--5--5--6--6------------
a--4--4--7--7--3--3--6--6-------4--4--7--7--3--3--6--6------------
e--------5--5--------4--4-------------5--5--------4--4------------


 solo
e------------------------------------------------------------------
b------------------------------------------------------------------
g------------------------------------------------------------------      
d------------------------------------------------------------------
a---------------------0--1--3~~--3--1--0--1--3---------------------
e--1~~--1--0--1--3-------------------------------------------------


e------------------------------------------------------------------
b------------------------------------------------------------------
g------------------------------------------------------------------
d------------------------------------------------------------------
a-------------------------3/5--5/6--6/7--7-------------------------
e--1~~--1-0-1--3--3--0---------------------------------------------
            
Hard to play? Try these video lessons and learn fast. | Correct




comments powered by Disqus
↑ Back to top | Tablatures and chords are parodies/interpretations of the original songs. You may use it for private study, scholarship, research or language learning purposes only