» » »

Dumb Bass tabs (ver.2)

Artists:  A B C D E F G H I J K L M N O P Q R S T U V W X Y Z # 

Dumb Bass tabs (ver.2)

Nirvana
Rating:
0/5 (0 votes)

Hard to play? Try these video lessons and learn fast.
                *******VERSE*********
Gb------------------|
Db------------------| 
Ab----020-----333-5-|
Eb-0-----3330-------|

Gb------------------|
Db------------------| 
Ab----020-----3232--|
Eb-0-----3330-------|

Play both 2X

*******CHORUS********
Gb------------------|
Db------------------| 
Ab---75-----53------| 
Eb-0---7530---530---|

Gb------------------|
Db------------------| 
Ab---75-----53/7----| 
Eb-0---7530-------0-|

********BRIDGE*******

Gb------------------|
Db------------------| 
Ab-2-22-222/3-33-333| 
Eb------------------|

X3

Gb------------------|
Db------------------|  
Ab-2-22-222/3-3-----| Let ring or pause on last note
Eb------------------|

*******VERSE*********
Gb------------------|
Db------------------| 
Ab----020-----333-5-|
Eb-0-----3330-------|

Gb------------------|
Db------------------| 
Ab----020-----3232--|
Eb-0-----3330-------|

Play both 2X

*******CHORUS********
Gb------------------|
Db------------------| 
Ab---75-----53------| 
Eb-0---7530---530---|

Gb------------------|
Db------------------| 
Ab---75-----53/7----| 
Eb-0---7530-------0-|

*******VERSE*********
Gb------------------|
Db------------------| 
Ab----020-----333-5-|
Eb-0-----3330-------|

Gb------------------|
Db------------------| 
Ab----020-----3232*-|
Eb-0-----3330-------|

Play both 3x
*Let last note ring on third time
            
Hard to play? Try these video lessons and learn fast. | Correct




comments powered by Disqus
↑ Back to top | Tablatures and chords are parodies/interpretations of the original songs. You may use it for private study, scholarship, research or language learning purposes only