» » »

Nirvana, Curmudgeon Tabs (ver.3)

Artists:  A B C D E F G H I J K L M N O P Q R S T U V W X Y Z # 

Curmudgeon Tabs (ver.3)

Nirvana Tabs
 Rating:
4/5 (4 votes)
Curmudgeon lessons Tabs too difficult? Try these video lessons and learn fast
1
                |  \  | | | | |     \  | |    | |   /  \    |  \  | |    /  \
|   \ | | | | | | |  | | |    | |  / /\ \   |   \ | |   / /\ \
| |\ \| | | | | |   /   \ \  / /  / /  \ \  | |\ \| |  / /  \ \
| | \   | | | | | \ \    \ \/ /  | | /\ | | | | \   | | | /\ | |
| |  \  | | | | |  \ \    \  /   | |    | | | |  \  | | |    | |
                 C  U  R  M  U  D  G  E  O  N 

This is a rare song, but not too hard to find. There are already 
few tabs for this song, but all of them are incomplete or wrong. 
So, I'm posting this tab because I think it's correct. This tab 
is not completely my work, I figured out on my own most of it, 
but some parts I grabbed from the net. Anyway, this is the most 
complete tab of this song. It may not be correct completely, but 
sounds alright and it's very close to the original song.   
 
 Verse

 I can handle... 
|-----------------| 
|---------------)-| 
|--------------7--|  
|--8-8-8-8-8------|  
|--8-8-8-8-8------| 
|--6-6-6-6-6-0----|

 Chorus

 She's at the seams...                She don't need...
|-----------------------------------||-----------------|
|-----------------------------------||-----------------|
|------------------8-8-8-8-8-8-8----||---------)-----)-|  
|--4-4-4-4-4-4-4---8-8-8-8-8-8-8----||--5~-5^-2--7~-7--|
|--4-4-4-4-4-4-4---6-6-6-6-6-6-6-0--||--5~-5^-2--7~-7--|
|--2-2-2-2-2-2-2-0------------------||--3~-3^-0--5~-5--|

 Solo
 
|-------------------------------------------------------)-----|
|------------------------------------------)---8~~~~-8/4~~~~--|
|--------------------------------5~~~~5/7-7~~~~---------------|
|-----------------5~~~~-5/7-7~~~~-----------------------------|
|--3~~~~-3/5-5~~~~--------------------------------------------|
|-------------------------------------------------------------|

 The whole solo is played with distortion and feedback and after
 this part the solo goes on with some random feedback noises.
            
Submit corrections

comments powered by Disqus
↑ Back to top | Nirvana Tabs for Curmudgeon. Lyrics for acoustic guitar and electric guitar. 1 Tablatures and chords are parodies/interpretations of the original songs. You may use it for private study, scholarship, research or language learning purposes only